Song name
# A B C D E F G H I J K L M N O P Q R S T U V W X Y Z

The Duskfall - Shoot It In tab

=-=-=-=-=-=-=-=-=-=-=-=-=-=-=-=-=-=
Shoot It In
The Duskfall
Lifetime Supply of Guilt
Half Step Down tuning
=-=-=-=-=-=-=-=-=-=-=-=-=-=-=-=-=-=
|----------------------------------|
|-------------------------5-7-5----|
|-7-6-------6-7-6-------6-------4--|
|-----9-7-9-------9-7-9------------|
|----------------------------------|
|----------------------------------|

|------------------------------------------------------------------|
|------------------------------------------------------------------|
|------------------------------------------------------------------|
|---------------------------------5-5-5-5-5-5-5-5------------------|
|-2-2-2-2-2-2-2-2-2-2-2-2-2-2-2-2-3-3-3-3-3-3-3-3-7-7-7-7-9-9-9-9--|
|-0-0-0-0-0-0-0-0-0-0-0-0-0-0-0-0-----------------5-5-5-5-7-7-7-7--|

|----------------------------------|
|-------------------------5-7-5----|
|-7-6-------6-7-6-------6-------4--|
|-----9-7-9-------9-7-9------------|
|----------------------------------|
|----------------------------------|

|------------------------------------------------------------------|
|------------------------------------------------------------------|
|------------------------------------------------------------------|
|---------------------------------5-5-5-5-5-5-5-5------------------|
|-2-2-2-2-2-2-2-2-2-2-2-2-2-2-2-2-3-3-3-3-3-3-3-3-7-7-7-7-9-9-9-9--|
|-0-0-0-0-0-0-0-0-0-0-0-0-0-0-0-0-----------------5-5-5-5-7-7-7-7--|

|----------------------------------|
|-------------------------5-7-5----|
|-7-6-------6-7-6-------6-------4--|
|-----9-7-9-------9-7-9------------|
|----------------------------------|
|----------------------------------|

|------------------------------------------------------------------|
|------------------------------------------------------------------|
|------------------------------------------------------------------|
|---------------------------------5-5-5-5-5-5-5-5------------------|
|-2-2-2-2-2-2-2-2-2-2-2-2-2-2-2-2-3-3-3-3-3-3-3-3-7-7-7-7-9-9-9-9--|
|-0-0-0-0-0-0-0-0-0-0-0-0-0-0-0-0-----------------5-5-5-5-7-7-7-7--|

|----------------------------------|
|-------------------------5-7-5----|
|-7-6-------6-7-6-------6-------4--|
|-----9-7-9-------9-7-9------------|
|----------------------------------|
|----------------------------------|

|------------------------------------------------------------------|
|------------------------------------------------------------------|
|------------------------------------------------------------------|
|---------------------------------5-5-5-5-5-5-5-5------------------|
|-2-2-2-2-2-2-2-2-2-2-2-2-2-2-2-2-3-3-3-3-3-3-3-3-7-7-7-7-9-9-9-9--|
|-0-0-0-0-0-0-0-0-0-0-0-0-0-0-0-0-----------------5-5-5-5-7-7-7-7--|


|------------------------------------------------------------------
|------------------------------------------------------------------|
|------------------------------------------------------------------|
|------------------------------------------------------------------|
|-2-2------------------222--222------------5-7*~-------------------|
|-0-0------------------000--000------0-5-7-------------------------|


|----------------------------------------------------------------------|
|----------------------------------------------------------------------|
|----------------------------------------------------------------------|
|--------------------------------5-3-0---------------------------------|
|------------------------------3--------------------------------3-5*---|
|-000--000--000--000--000--3-5-----------000-000-000-000-000-3-5-------|


|-------------------------------------------------------------------|
|-------------------------------------------------------------------|
|-------------------------------------------------------------------|
|-------------------------------5-3-0----9~-------9--9--7--7--------|
|-----------------------------3----------7~-------7--7--5--5--------|
|-000--000--000--000--000--3-5--------------------------------------|

|----------------------------------------------------------------------|
|----------------------------------------------------------------------|
|----------------------------------------------------------------------|
|--------------------------------5-3-0---------------------------------|
|------------------------------3--------------------------------3-5*---|
|-000--000--000--000--000--3-5-----------000-000-000-000-000-3-5-------|

|-------------------------------------------------------------------------|
|-------------------------------------------------------------------------|
|-------------------------------------------------------------------------|
|--------------------------------5-3-0---9~-------9--9--7--7----------9~--|
|------------------------------3---------7~-------7--7--5--5------7-7-7~--|
|-000--000--000--000--000--3-5--------------------------------------------|

|-------------------------------------------------------------------------|
|-------------------------------------------------------------------------|
|-------------------------------------------------------------------------|
|-----5~-------------9~------------5~------7-----------9~----------5~-----|
|-3-3-3~---------7-7-7~--------3-3-3~------5-------7-7-7~------3-3-3~-----|
|-------------------------------------------------------------------------|


|-------------------------------|
|-------------------------------|
|-------------------------------|
|-----9~-----5~--5~--5--7--7--7-|
|-7-7-7~-----3~--3~--3--5--5--5-|
|-------------------------------|

|------------------------------------------------------------------|
|------------------------------------------------------------------|
|------------------------------------------------------------------|
|---------------------------------5-5-5-5-5-5-5-5------------------|
|-2-2-2-2-2-2-2-2-2-2-2-2-2-2-2-2-3-3-3-3-3-3-3-3-7-7-7-7-9-9-9-9--|
|-0-0-0-0-0-0-0-0-0-0-0-0-0-0-0-0-----------------5-5-5-5-7-7-7-7--|

|----------------------------------|
|-------------------------5-7-5----|
|-7-6-------6-7-6-------6-------4--|
|-----9-7-9-------9-7-9------------|
|----------------------------------|
|----------------------------------|

|------------------------------------------------------------------|
|------------------------------------------------------------------|
|------------------------------------------------------------------|
|---------------------------------5-5-5-5-5-5-5-5------------------|
|-2-2-2-2-2-2-2-2-2-2-2-2-2-2-2-2-3-3-3-3-3-3-3-3-7-7-7-7-9-9-9-9--|
|-0-0-0-0-0-0-0-0-0-0-0-0-0-0-0-0-----------------5-5-5-5-7-7-7-7--|

|----------------------------------|
|-------------------------5-7-5----|
|-7-6-------6-7-6-------6-------4--|
|-----9-7-9-------9-7-9------------|
|----------------------------------|
|----------------------------------|

|------------------------------------------------------------------|
|------------------------------------------------------------------|
|------------------------------------------------------------------|
|---------------------------------5-5-5-5-5-5-5-5------------------|
|-2-2-2-2-2-2-2-2-2-2-2-2-2-2-2-2-3-3-3-3-3-3-3-3-7-7-7-7-9-9-9-9--|
|-0-0-0-0-0-0-0-0-0-0-0-0-0-0-0-0-----------------5-5-5-5-7-7-7-7--|

|----------------------------------|
|-------------------------5-7-5----|
|-7-6-------6-7-6-------6-------4--|
|-----9-7-9-------9-7-9------------|
|----------------------------------|
|----------------------------------|

|------------------------------------------------------------------|
|------------------------------------------------------------------|
|------------------------------------------------------------------|
|---------------------------------5-5-5-5-5-5-5-5------------------|
|-2-2-2-2-2-2-2-2-2-2-2-2-2-2-2-2-3-3-3-3-3-3-3-3-7-7-7-7-9-9-9-9--|
|-0-0-0-0-0-0-0-0-0-0-0-0-0-0-0-0-----------------5-5-5-5-7-7-7-7--|

|----------------------------------|
|-------------------------5-7-5----|
|-7-6-------6-7-6-------6-------4--|
|-----9-7-9-------9-7-9------------|
|----------------------------------|
|----------------------------------|

|----------------------------------------------------------------------|
|----------------------------------------------------------------------|
|----------------------------------------------------------------------|
|--------------------------------5-3-0---------------------------------|
|------------------------------3--------------------------------3-5*---|
|-000--000--000--000--000--3-5-----------000-000-000-000-000-3-5-------|


|-------------------------------------------------------------------|
|-------------------------------------------------------------------|
|-------------------------------------------------------------------|
|-------------------------------5-3-0----9~-------9--9--7--7--------|
|-----------------------------3----------7~-------7--7--5--5--------|
|-000--000--000--000--000--3-5--------------------------------------|


|----------------------------------------------------------------------|
|----------------------------------------------------------------------|
|----------------------------------------------------------------------|
|--------------------------------5-3-0---------------------------------|
|------------------------------3--------------------------------3-5*---|
|-000--000--000--000--000--3-5-----------000-000-000-000-000-3-5-------|


|-------------------------------------------------------------------|
|-------------------------------------------------------------------|
|-------------------------------------------------------------------|
|-------------------------------5-3-0----9~-------9--9--7--7--------|
|-----------------------------3----------7~-------7--7--5--5--------|
|-000--000--000--000--000--3-5--------------------------------------|


|------------------------------------------------------------------------------------------|
|------------------------------------------------------------------------------------------|
|------------------------------------------------------------------------------------------|
|-------9~-----------5~-------------9~------------5~------7--7--7-------9~----------5~-----|
|---7-7-7~-------3-3-3~---------7-7-7~--------3-3-3~------5--5--5---7-7-7~------3-3-3~-----|
|------------------------------------------------------------------------------------------|


|-------------------------------------|
|-------------------------------------|
|-------------------------------------|
|-----9~-------5~--5~--5-7-7-7--------|
|-7-7-7~-------3~--3~--3-5-5-5--------|
|-------------------------------------|


|------------------------------------------------------------------|
|------------------------------------------------------------------|
|------------------------------------------------------------------|
|---------------------------------5-5-5-5-5-5-5-5------------------|
|-2-2-2-2-2-2-2-2-2-2-2-2-2-2-2-2-3-3-3-3-3-3-3-3-7-7-7-7-9-9-9-9--|
|-0-0-0-0-0-0-0-0-0-0-0-0-0-0-0-0-----------------5-5-5-5-7-7-7-7--|

|----------------------------------|
|-------------------------5-7-5----|
|-7-6-------6-7-6-------6-------4--|
|-----9-7-9-------9-7-9------------|
|----------------------------------|
|----------------------------------|

|------------------------------------------------------------------|
|------------------------------------------------------------------|
|------------------------------------------------------------------|
|---------------------------------5-5-5-5-5-5-5-5------------------|
|-2-2-2-2-2-2-2-2-2-2-2-2-2-2-2-2-3-3-3-3-3-3-3-3-7-7-7-7-9-9-9-9--|
|-0-0-0-0-0-0-0-0-0-0-0-0-0-0-0-0-----------------5-5-5-5-7-7-7-7--|

|----------------------------------|
|-------------------------5-7-5----|
|-7-6-------6-7-6-------6-------4--|
|-----9-7-9-------9-7-9------------|
|----------------------------------|
|----------------------------------|

|------------------------------------------------------------------|
|------------------------------------------------------------------|
|------------------------------------------------------------------|
|---------------------------------5-5-5-5-5-5-5-5------------------|
|-2-2-2-2-2-2-2-2-2-2-2-2-2-2-2-2-3-3-3-3-3-3-3-3-7-7-7-7-9-9-9-9--|
|-0-0-0-0-0-0-0-0-0-0-0-0-0-0-0-0-----------------5-5-5-5-7-7-7-7--|

|----------------------------------|
|-------------------------5-7-5----|
|-7-6-------6-7-6-------6-------4--|
|-----9-7-9-------9-7-9------------|
|----------------------------------|
|----------------------------------|

|------------------------------------------------------------------|
|------------------------------------------------------------------|
|------------------------------------------------------------------|
|---------------------------------5-5-5-5-5-5-5-5------------------|
|-2-2-2-2-2-2-2-2-2-2-2-2-2-2-2-2-3-3-3-3-3-3-3-3-7-7-7-7-9-9-9-9--|
|-0-0-0-0-0-0-0-0-0-0-0-0-0-0-0-0-----------------5-5-5-5-7-7-7-7--|

|----------------------------------|
|-------------------------5-7-5----|
|-7-6-------6-7-6-------6-------4--|
|-----9-7-9-------9-7-9------------|
|----------------------------------|
|----------------------------------|


|---------------------------5-----5-------------------------|
|---------2--4~----(4)------------------------------2--4~---|
|-----2-4----------------7-----7-----4~----------2-4--------|
|-2--4---------------------------------------2--4-----------|
|-----------------------------------------------------------|
|-----------------------------------------------------------|


|---------------------------------------------------|
|---------------------------------------------------|
|-7-6-4----7-6-4-----7-6-4-7-6-4-7-6-4-7-6-4-4~-----|
|-------7--------7----------------------------------|
|---------------------------------------------------|
|---------------------------------------------------|


|----------------------------------14--12------12-------------------------------------|
|-----7---6-----7---6----------12----------15----15--14-12~---------------------------|
|-/4---------4---------4~-------------------------------------------------------------|
|----------------------------------------------------------------x-x-11-9--x-x-7\9~---|
|-------------------------------------------------------------------------------------|
|-------------------------------------------------------------------------------------|


|----------------------------------------------12---14---12---------------|
|------------------------------------------12------------------15---14----|
|--------------------4---6---7---6---4-6----------------------------------|
|-------------------------------------------------------------------------|
|-------------------------------------------------------------------------|
|-2--4--5--4--2-4---------------------------------------------------------|



|------------------------------------------------------------------|
|------------------------------------------------------------------|
|------------------------------------------------------------------|
|---------------------------------5-5-5-5-5-5-5-5------------------|
|-2-2-2-2-2-2-2-2-2-2-2-2-2-2-2-2-3-3-3-3-3-3-3-3-7-7-7-7-9-9-9-9--|
|-0-0-0-0-0-0-0-0-0-0-0-0-0-0-0-0-----------------5-5-5-5-7-7-7-7--|

|----------------------------------|
|-------------------------5-7-5----|
|-7-6-------6-7-6-------6-------4--|
|-----9-7-9-------9-7-9------------|
|----------------------------------|
|----------------------------------|

|------------------------------------------------------------------|
|------------------------------------------------------------------|
|------------------------------------------------------------------|
|---------------------------------5-5-5-5-5-5-5-5------------------|
|-2-2-2-2-2-2-2-2-2-2-2-2-2-2-2-2-3-3-3-3-3-3-3-3-7-7-7-7-9-9-9-9--|
|-0-0-0-0-0-0-0-0-0-0-0-0-0-0-0-0-----------------5-5-5-5-7-7-7-7--|

|----------------------------------|
|-------------------------5-7-5----|
|-7-6-------6-7-6-------6-------4--|
|-----9-7-9-------9-7-9------------|
|----------------------------------|
|----------------------------------|

|------------------------------------------------------------------|
|------------------------------------------------------------------|
|------------------------------------------------------------------|
|---------------------------------5-5-5-5-5-5-5-5------------------|
|-2-2-2-2-2-2-2-2-2-2-2-2-2-2-2-2-3-3-3-3-3-3-3-3-7-7-7-7-9-9-9-9--|
|-0-0-0-0-0-0-0-0-0-0-0-0-0-0-0-0-----------------5-5-5-5-7-7-7-7--|

|----------------------------------|
|-------------------------5-7-5----|
|-7-6-------6-7-6-------6-------4--|
|-----9-7-9-------9-7-9------------|
|----------------------------------|
|----------------------------------|

|------------------------------------------------------------------|
|------------------------------------------------------------------|
|------------------------------------------------------------------|
|---------------------------------5-5-5-5-5-5-5-5------------------|
|-2-2-2-2-2-2-2-2-2-2-2-2-2-2-2-2-3-3-3-3-3-3-3-3-7-7-7-7-9-9-9-9--|
|-0-0-0-0-0-0-0-0-0-0-0-0-0-0-0-0-----------------5-5-5-5-7-7-7-7--|

|----------------------------------|
|-------------------------5-7-5----|
|-7-6-------6-7-6-------6-------4--|
|-----9-7-9-------9-7-9------------|
|----------------------------------|
|----------------------------------|

|-------------|
|-------------|
|-4-4-4-2-2-2-|
|-5-5-5-4-4-4-|
|-------------|
|-------------|


Legend:
~ = Hold
* = Pinch Harmonic
/ = Slide Up
\ = Slide Down
x = Mute Note
Tap to rate this tab
 
# A B C D E F G H I J K L M N O P Q R S T U V W X Y Z