The Dutchess And The Duke - Reservoir Park tab

-------------------------------------------------------------------------------
		 Reservoir Park - The Dutchess and the Duke
-------------------------------------------------------------------------------
Tabbed by: Juniahh
Email: jay.doh99@gmail.com

Tuning: Standard

Chords:

  |Em|	   |Am|	     |C|      |G|      |F|
e|--0--| e|--0--| e|--0--| e|--3--| e|--1--|
B|--0--| B|--1--| B|--1--| B|--0--| B|--1--|
G|--x--| G|--2--| G|--0--| G|--0--| G|--2--|
D|--2--| D|--2--| D|--2--| D|--0--| D|--3--|
A|--2--| A|--0--| A|--3--| A|--2--| A|--3--|
E|--0--| E|--x--| E|--x--| E|--3--| E|--1--|


Solo: Repeat 2x

e|---------------------------------------------------------------------------|
B|---------------------------------------------------------------------------|
G|--2--4--5--4--2--0--2--4--5--4--2-----------2--4--5--4--2--0-----------2---|
D|-----------------------------------2--3--2--------------------3--2--3------|
A|---------------------------------------------------------------------------|
E|---------------------------------------------------------------------------|

e|---------------------------------------------------------------------------|
B|---------------------------------------------------------------------------|
G|-----------------2--4--5--4--2--0-----------2------------------------------|
D|--3--2--0--------------------------3--2--3-----3--2--0-----------0--2--3---|
A|-----------3--2-----------------------------------------3--2--3------------|
E|---------------------------------------------------------------------------|

e|---------------------------------------------------------------------------|
B|---------------------------------------------------------------------------|
G|---------------------------------------------------------------------------|
D|--2--0--------------2------------------------------------------------------|
A|--------3--2--0--3-----3--0------------------------------------------------|
E|---------------------------------------------------------------------------|

Song:

Intro: Am

Well I barely woke this morning on the cold ground by the sea.
                   C                    Em
And I opened up my eyes and those black clouds are all I see.
  Am            C
And I wonder if someone's up there,
        F		    Am
If the black clouds can see me,
	            Em         Am
And the clouds keep rolling on in

The supersonic jet plane taking people everywhere.
Well, i wish that i could go there, I wish I could be somewhere.
But i know I'm still right here,
And I know here is still nowhere,
And the clouds keep rolling on in.

     C		              Am
Well tell me, what am I gonna do?
F		   Em
Tell me, what am I gonna do?
Am
To make it clear.
G	        F
So I can get my head straight,
      Em
I can see the sun.

Am
Well I went down to have my fortune told.
		       C	     Em
Well I went to see the gypsy to have my fortune told.
	  Am		     C	              F            Am
She said "You ain't got no future, you ain't never growing old,
		    Em         Am
And the clouds keep rolling on in.

Well, how many times have I defied the cold clutches of death?
And how many times have I stopped short from taking that last step?
And every time I've tried to hurt you, I have only hurt hurt myself,
And the clouds keep rolling on in.

Well tell me what am I gonna do?
Tell me, what am I gonna do?
To make it clear,
Well I can't get my head straight,
I can't see the sun.
F		  Em
Tell me, what am I gonna do?
Am
So I can see,
      G         F       Em
So I can be the same as everyone.

Solo:

Am
Well, I hear them whisper, pounding, pounding in my head until it all sounds the same.
	   C		    Em
If I don't see the sun soon then I know I'll go insane.
Am		       C
And if this is where I belong,
	 F	     Am
Well how long will I remain?
		     Em	       Am
And the clouds keep rolling on in.

       C		      Am
Well tell me, what am I gonna do?
F		   Em
Tell me, what am I gonna do?
Am
To make it clear
   G		    F
Well I can't get my head straight
        Em
I can't see the sun
F		  Em
Tell me, what am I gonna do?
Am
So I can see,
     G              F	          Em
So I can be the same, the same as everyone.
F		   Em
Tell me, what am I gonna do?
Am
'Cause I can't see
      G	         F	             Em
And I can't be the same, the same as everyone.

Please send any corrections to my e-mail. Feel free to post anywhere but please 
give me some credit on it.
Tap to rate this tab
 
# A B C D E F G H I J K L M N O P Q R S T U V W X Y Z