Song name
# A B C D E F G H I J K L M N O P Q R S T U V W X Y Z

The Dykeenies - Waiting For Go tab

The Dykeenies - Waiting For Go

KNOW THE SONG BEFORE PLAYING OR IT WONT MAKE SENSE
STRUMMING PATTERN NOT SHOWN HARDLY


Intro Part 1

Guitar 1


PM.....................
e|--------------------|
B|--------------------|
G|--12-------19-------|
D|---x-------x--------|  x2
A|--10-------17-------|
E|--------------------|


Guitar 2

e|------777-888-777-888-------------------|
B|--888-----------------------------------|
G|----------------------------------------|    x2
D|----------------------------------------|
A|----------------------------------------|
E|----------------------------------------|


Intro Part 2 (drums+bass)

G1

e|--------------------|
B|--------------------|
G|--12-------19-------|
D|---x-------x--------|  x2
A|--10-------17-------|
E|--------------------|

G2

e|--------------------------------------------------------------------------------------|
B|--------------------------------------------------------------------------------------|
G|---5/121212121212--10-9-12-10~-----/1414141414141414-12-11-14-12-11-1212121212121212\-|
D|--------------------------------------------------------------------------------------|  x2
A|--------------------------------------------------------------------------------------|
E|--------------------------------------------------------------------------------------|


Verse

After "Straight ahead..."

G1


e|-----------------|
B|-----------------|
G|--19----12-------|
D|---x-----x-------|
A|--17----10-------|   x3.5 (verse end on the D, then kicks straight into Chorus
E|-----------------|


G2


Drums and stuff kick in

e|-----------------|
B|-----------------|
G|---7----12-------|
D|---x-----x-------|  x3.5 (Same as above)
A|---5----10-------|
E|-----------------|

Chorus (same as intro part 2's)

G1

e|--------------------|
B|--------------------|
G|--12-------19-------|
D|---x-------x--------|  x2
A|--10-------17-------|
E|--------------------|

G2

e|--------------------------------------------------------------------------------------|
B|--------------------------------------------------------------------------------------|
G|---5/121212121212--10-9-12-10~-----/1414141414141414-12-11-14-12-11-1212121212121212\-|

 x2  (listen to make sense)
A|--------------------------------------------------------------------------------------|
E|--------------------------------------------------------------------------------------|


Verse  x2.5
Chrous x1


Bridge

"Waiting For...go"


G1

e|----------------------|
B|----------------------|
G|--12----19---776654~--|
D|---x-----x---776654~--|
A|--10----17---554432~--|
E|----------------------|

G2

e|-----------------------|
B|-----------------------|
G|---12----7---776654~---|
D|----x----x---776654~---|
A|---10----5---554432~---|
E|-----------------------|


Bridge 2

"Terrify You"

Both GUitars


e|----------------------|
B|----------------------|
G|--12121212--12121212--|
D|---x-x-x-x---x-x-x-x--|
A|--10101010--10101010--|
E|----------------------|


Chorus x3

Outro
"Waiting For...GO"


G1

e|---------------------------------|
B|---------------------------------|
G|--12----19----------12121212-----|
D|---x-----x--- x3 ----x-x-x-x-----|
A|--10----17----------10101010\----|
E|---------------------------------|

G2

e|-------------------------|
B|-------------------------|
G|---12----7---12121212\---|
D|----x----x---------------|
A|---10----5---------------|
E|-------------------------|

Rate Please, and comments with improvments (Y)

Jack00743 x
Tap to rate this tab
# A B C D E F G H I J K L M N O P Q R S T U V W X Y Z