Song name
# A B C D E F G H I J K L M N O P Q R S T U V W X Y Z

The Edge Band - Samjhine Mutu tab

Intro: 1

E |------------10h12--9h10-----------------------------------------|
B |-----10--9---------------10h12--9h10----------------------------|
G |--------------------------------------9h11--7h9--6h7h6--4-------|
D |----------------------------------------------------------------|
A |----------------------------------------------------------------|
E |----------------------------------------------------------------|

Intro: 2

E |-------12--------10h12--9h10------------------------------------------------|
B |---10------10--9--------------10h12--9h10-----------------------------------|
G |-------------------------------------------9h11--7h9--6h7h6--4--2\4-2-------|
D |----------------------------------------------------------------------2\4-2-|
A |----------------------------------------------------------------------------|
E |----------------------------------------------------------------------------|
Tap to rate this tab
# A B C D E F G H I J K L M N O P Q R S T U V W X Y Z