Song name
# A B C D E F G H I J K L M N O P Q R S T U V W X Y Z

The Effort - Crashing Waves tab

Song: Crashing Waves
Band: The Effort
Album: Iconoclasm


0:44
------------------------------------------------------------|
------------------------------------------------------------|
------------------------------------------------------------|
--11-----11/12-11-----------------7-----6/7-6---------------|
--11--------------12--10h12p9h10--7-----------7--7h9--------|
--9--9-9--------------------------5-5-5-------------9-10----|
     . .                            . .


------------------------------------------------------------------|
------------------------------------------------------------------|
------------------------------------------------------------------|
--9-----11/12-11-------------------11----------------9----9/11\9--|
--9--------------12--10h12p9h10----11----------------9----9/11\9--|
--7--7-7---------------------------9-9999999999999999777777/9-\7--|
     . .                             ................ ....


--------------|-------------|-------------|----------------------------|
--------------|-------------|-------------|----------------------------|
--------------|-------------|-------------|----------------------------|
--1111111111--|--7-7-7-7-7--|--9-9-9-9-9--|-7-7-7-7-7-9-9-9-9-9-9/7\9--|
--1111111111--|--7-7-7-7-7--|--9-9-9-9-9--|-7-7-7-7-7-9-9-9-9-9-9/7\9--|
--9-9-9-9-9---|--5-5-5-5-5--|--7-7-7-7-7--|-5-5-5-5-5-7-7-7-7-7-7/9\7--|


if it's bad, i'll fix it. and do the rest another time.

http://www.myspace.com/xeffortx
Tap to rate this tab
 
# A B C D E F G H I J K L M N O P Q R S T U V W X Y Z