Song name
# A B C D E F G H I J K L M N O P Q R S T U V W X Y Z

The Effort - To The Top All The Way tab

To The Top, All The Way
The Effort
Wartime Citizens

standard tuning fools.

----------------------------------|
--12----12----12----12----12------|
----12----12----12----12----12----| x2
------12----12----12----12----12--|
----------------------------------|
----------------------------------|


----------------------------------|
--12----12----12----12----12------|
----12----12----12----12----12----|
------12----12----12----12----12--|
----------------------------------|
----------------------------------|

----------------------------------|
--14----14----14----14----14------|
----14----14----14----14----14----|
------14----14----14----14----14--|
----------------------------------|
----------------------------------|

then a few fat E's
-----|
-----|
-----|
-----|
--2--|
--0--|

then a gnarly pickscrape

riffin:
-------------------------|
-----------------3--5----|
--9----9----7-----2--2---|
--9----9----7------2--2--|
--7----7----5------------|
-------------------------|

that's about half of it.
the rest is a few more fat E's and a hell of a lot of feedback.
Tap to rate this tab
 
# A B C D E F G H I J K L M N O P Q R S T U V W X Y Z