Song name
# A B C D E F G H I J K L M N O P Q R S T U V W X Y Z

The Effort - Price Of Medication tab

Price of Medication
The Effort
Iconoclasm

standard tuning fools

------------------------------|
------------------------------|
------------------------------|
-----------------4------------|
--2------------2--------------|
--0------------0--------------|


Double your strums:
-----------------------------------|
-----------------------------------|
-----------------------------------|
------------------4-4-4-4-----9-9--|
--2-2-2-2-2-2-2-2-2-2-2-2-5-5-9-9--|
--0-0-0-0-0-0-0-0---------3-3-7-7--|
  . . . . . . . . . . . . . .


----------------|------|
----------------|------|
--9--11-12--14--|--16--|
----------------|------|
--7--9--10--12--|--14--|
----------------|------|
Tap to rate this tab
 
# A B C D E F G H I J K L M N O P Q R S T U V W X Y Z