Song name
# A B C D E F G H I J K L M N O P Q R S T U V W X Y Z

The Elected - A Time For Emily tab

-----------------------------------------------------------------------
			    A Time For Emily - The Elected
-----------------------------------------------------------------------
Tabbed by:deHufter
Email:kurtkill@hotmail.com

Tuning:standard

Chords used:

    E   E/D#  E7  E7*  A   B7  F#m  B  C#m
e|--7---------7---10---5---7---2----2---4------------------------------|
B|--9---9-----9---9----5---7---2----4---5------------------------------|
G|--9---9-----7---9----6---8---2----4---6------------------------------|
D|--9---9-----9---9----7---7---4----4---6------------------------------|
A|--7---6-----7--------7---9---4----2---4------------------------------|
E|---------------------5---7---2---------------------------------------|

Intro + verse: 
E E/D# E7 A B7 A E 

Last time play: 
E E/D# E7 A B7 A E E7* 

Intro, clockenspiel (or whatever) transcribed for guitar:
e|-------9---------7---------------------------------------------------|
B|----12---12---10---10---9-10-9-------7h9-----------------------------|
G|--9---------8---------7--------9-9-9---------------------------------|
D|---------------------------------------------------------------------|
A|---------------------------------------------------------------------|
E|---------------------------------------------------------------------|

e|-------------------------9----9-12-9---------------------------------|
B|--7-7-9-7----------12-12---12--------12------------------------------|
G|----------9-9-11-9---------------------------------------------------|
D|---------------------------------------------------------------------|
A|---------------------------------------------------------------------|
E|---------------------------------------------------------------------|

Chorus:
F#m B E E/D# C#m B A B

Trumpet little thingy transcribed for guitar:
e|----7-7----7-9-11-7--------------------------------------------------|
B|--9------9-----------9-10-10------10-9--------10-9-------------------|
G|------------------------------9-9------9--9-9------9-11-9------------|
D|---------------------------------------------------------------------|
A|---------------------------------------------------------------------|
E|---------------------------------------------------------------------|



Tap to rate this tab
# A B C D E F G H I J K L M N O P Q R S T U V W X Y Z