Guitaretab - guitar tabs
Song name
# A B C D E F G H I J K L M N O P Q R S T U V W X Y Z

The Elected - Ill Be Your Man tab

The Elected
I'll Be Your Man
from Sun, Sun, Sun
transcribed by tim sookram

Intro
  C                         Dm
e----------8h10-8-------------------12-10---------------|
B------8---8------8--------------10-10------------------|
G----9---9----------9---------10----10------------------|
D-10------------------------12--------------------------|
A-------------------------------------------------------|
E-------------------------------------------------------|
  G                         C
e----------15-13-12------------------12-15---------------|
B-------12----------15-12---13----13---------------------|
G----12------------------------12------------------------|
D-12-----------------------------------------------------|
A--------------------------------------------------------|
E--------------------------------------------------------|
(strum the chord upward on the hammer-ons)

C             Dm              G                C
You've got to learn to lie to make everyone happy
    C               Dm             G                  C    C7
and you're going to have to cry to make it on your ow-n
[ Tab from: http://www.guitaretab.com/t/the-elected/170839.html ]
    F       G            C               Am
but I can't see you now, put down your hands
    F       G             C              C7
no, I can't feel you now, give me your hands
      F         G           C               Am
cause I've been waiting as long as I can stand
F                        G
 so if you ever need someone,
              C
I'll be your man
      Em            Am
yeah, I'll be your man
      G              F G C
yeah, I'll be your man

(intro)

you don't have to go and die
to show people you're hurting
and you're going to have to try
put out the fire if you're burning

but I can't see you now, put down your hands
no, I can't feel you now, give me your hands
cause we've been waiting as long as we can stand
and should you ever need anyone, I'll be your man
yeah, I'll be your man
yeah, I'll be your man

(solo) - play verse

       F                  G
now, I read through your poetry
      C          Am
yeah, every last one
            F             G
felt like I ate too much butter
    C                 C7
and drank too much rum
cause it made me feel sweet inside
warm, proud, and young
I've been sick inside
and angry at everyone

and I wish i could touch you
if I wasn't miles away
we could talk it all out
in your clean white place

now I've done all the waiting I think I can stand
F                 G
and I want you to know
F                   G
yeah, I want you to know
F             G
I want you to know
I think you've found your man
yeah, I'll be your man
yeah, you've found your man
come home to him

end on C

Chord changes are not completely exact - follow the song to get the feel.
Arpeggiate the chords in the verse - didn't have time to transcribe exactly.
Related for Ill Be Your Man tab
×
Ill Be Your Man