Song name
# A B C D E F G H I J K L M N O P Q R S T U V W X Y Z

The Elms - The Shake tab

Ok, so if you are like me you heard this song on nhl 09 and wanted to play it. well i
to this site looking for a tab for the song and to no avail came up empty, so i decided to
it myself. I am almost positive this tab is correct. If you have any changes you want to
made to the tab email me.


Intro:

e-----------------------------------------------------------|
B-----------------------------------------------------------|
G-----------7p5-7bp5----------------------------------------|
D-----7-5-7---------7----7-5-7------------------------------|
A------7------------------7---7p5---------------------------|
E--------------------------------8-5------------------------|


Verse:

D/C/A/G/A


Chorus:

Same thing as verse just different strumming pattern


Intro again
Verse again
Chorus again

Solo 1: Same thing as the intro just up to the next octave

e------------------------------------------------------------|
B------------------------------------------------------------|
G----------------19p17-19bp17--------------------------------|
D---19----17-19---------------19-----19----17-19-------------|
A------19-------------------------------19-------19p17-------|
E------------------------------------------------------20-17-|


Bridge:

A A A D D D x4


Solo 2:

e-----------------------17-------17-------17-------17-------------------------|
B10------13--------17----------------------------------19p17------------------|
G12b14---15b17-----19b21---17b21----17b21----17b21----------19p17h19p17-19-19-|
D-----------------------------------------------------------------------------|
A-----------------------------------------------------------------------------|
E-----------------------------------------------------------------------------|

Verse
Chorus

Outro played over the verse:

e--------------------------7------------------------------------|
B--5-----7------1---------7-8-5---------------------------------|
G--7b9---9b11---3b5----7b9-----7-5-7-5--------------------------|
D---------------------------------7---5-7-----------------------|
A---------------------------------------------------------------|
E---------------------------------------------------------------|

I hope this helps people learn this song and if there are any corrections or questions
free to email at bmeyer2429@gmail.com
Tap to rate this tab
# A B C D E F G H I J K L M N O P Q R S T U V W X Y Z