Song name
# A B C D E F G H I J K L M N O P Q R S T U V W X Y Z

The Elms - Ive Been Wrong tab

Artist: The Elms
Song: I've been wrong
Capo 3
h= hammer on

Hi! This is my first tab. I think it's pretty correct.
The song isn't that hard to play.
Listen to the song, and you'll know how to play it right!
Any questions or anything? contact me at mailvanmirjam@gmail.com

Goodluck!
---------------------------------------------------------------------
Rif 1
e|--------------------|
B|--------------------|
G|--------------------|
D|--------------------|
A|-2-h3-3-2-2-2-2--h2-|
E|-3----3-3-3-3-3-1---|

Rif 2
e|-------------|
B|-------------|
G|-------------|
D|-------------|
A|-3-3-2-------|
E|-3-3-3-------|

Rif 3
e|-----------|
B|-----------|
G|-----------|
D|-----------|
A|---h2------|
E|-1---------|

Intro Rif 1 (3x) Rif 2 (1x)

          Rif 1            Rif 1
I've been wrong from the beginning.
          Rif 1            Rif 2  Rif 3
I've been wrong from the beginning.
                Am Em                 Rif 1
If you've been losing while I've been winning,
               Rif 1           Rif 2
Then I've been wrong from the beginning.

(continue playing like the first verse)

I sit by the river. Got my feet in the water.
I feel about a dollar like I feel about a daughter.
If I've been laughing while you've been crying,
Then I've been wrong from the beginning.

I got a house on the border. I got shoes made of leather.
I got a robe made of velvet. I got a bed made of feather.
If you've been freezing while I've been sleeping,
Then I've been wrong. And for that, I'm weeping.

Have you been freezing while I've been sleeping?
Then I've been wrong. And for that, I'm changing. 

------------------------------------------------------------------------
   
Tap to rate this tab
# A B C D E F G H I J K L M N O P Q R S T U V W X Y Z