Song name
# A B C D E F G H I J K L M N O P Q R S T U V W X Y Z

The Elms - Smile At Life Again tab

capo 4th fret

this is 100% correct I played it with it and its exactly right.

Pre-Chorus
E|-------3-----2---0---------------------|
B|-----3-------3---3---------------------|
G|---0---------0---0---------------------|
D|---------------------------------------|
A|---------------------------------------|
D|---------------------------------------|
				4x

ending 2x
E|-------3-----2---0---------------------|
B|-----3-------3---3-----1---------------|
G|---0---------0---0---------------------|
D|---------------------------------------|
A|---------------------------------------|
D|---------------------------------------|
Tap to rate this tab
# A B C D E F G H I J K L M N O P Q R S T U V W X Y Z