The Ending - Freakshow tab

Guitar 1
|--------------------------------| X3
|--------------------------------|
|----4-------5-------5-2-----4---|
|--2---2---2---2---2-------2---1-|
|--------------------------------|
|--------------------------------|
Guitar 2
|--------------------------------| X3
|--------------------------------|
|--------------------------------|
|--------------------------------|
|--------------------------------|
|0~------2~------3~------7~------|

Then...
Guitar 1
|------------------------------------|
|------------------------------------|
|-----4-5~-----4-5~-----4-5~-----4-2-|
|---2--------2--------2--------2-----|
|-0--------0--------0--------0-------|
|------------------------------------|
Guitar 2
|------------------------------------|
|------------------------------------|
|------------------------------------|
|------------------------------------|
|------------------------------------|
|8~-------8~-------8~-------8~-------|

Replay through the rest of the song besides Chorus and Bridge.

Tap to rate this tab
 
# A B C D E F G H I J K L M N O P Q R S T U V W X Y Z