Song name
# A B C D E F G H I J K L M N O P Q R S T U V W X Y Z

The Enemy - Had Enough tab

Had Enough-The Enemy

Ive Been Watching Videos Of Them Live And Ive Figured That All Their SOngs Must Be In Drop D.

Drop D Tuning. Played Through A Fender Telecaster.

Intro/Verse

d---------------------------------------------------------------------|
A---------------------------------------------------------------------|
F---------------------------------------------------------------------|
C----13----13----13----13----11---11---11----11----10---10---10---10--|
G---------------------------------------------------------------------|
D-11----11----11----11-----9----9----9----9------8----8----9----9-----|

Chorus

d------------------------------------------------------------------|
A------------------------------------------------------------------|
F------------------------------------------------------------------|
C------------------------------------------------------------------|
G-6-6-6-6-6-6-6--13-13-13-13-13-13-13--6-6-6-6-6-6--8-8-8-8-8-8-8--|
D-4-4-4-4-4-4-4--11-11-11-11-11-11-11--4-4-4-4-4-4--6-6-6-6-6-6-6--|

Bridge 1

'Ooooooooooh It Alright...'

d---------------------------------------------------------------------|
A---------------------------------------------------------------------|
F---------------------------------------------------------------------|
C----13----13----13----13----11---11---11----11----10---10---10---10--|
G---------------------------------------------------------------------|
D-11----11----11----11-----9----9----9----9------8----8----9----9-----|

Bridge 2

d---------------------------------------------------------|
A---------------------------------------------------------|
F---------------------------------------------------------|
C----13----13----13----13----13----13----13----13-----13--|
G---------------------------------------------------------|
D-11----11----11----11----11----11----11----11----11------|

Outro

d---------------------------------------------------------------------|
A---------------------------------------------------------------------|
F---------------------------------------------------------------------|
C----13----13----13----13----11---11---11----11----10---10--11-11-11--|
G-----------------------------------------------------------x--x--x---|
D-11----11----11----11-----9----9----9----9------8----8-----9--9--9---|

Order:

Intro
Verse
Chorus
Bridge 1
Verse
Chorus
Bridge 2
Chorus
Outro
Tap to rate this tab
# A B C D E F G H I J K L M N O P Q R S T U V W X Y Z