Song name
# A B C D E F G H I J K L M N O P Q R S T U V W X Y Z

The Enemy - This Song tab

Title: This Song Is About You
Artist: The Enemy
Album: We'll Live & Die In These Towns
hey everyone here's the tab for This Song by The Enemy hope it's alright
add me on myspace:]
www.myspace.com/gazguitarkid438709
cheers!
Gaz

Inro/Verses/Link:
just keep repeating these notes

e|------------------------------------------------------|
B|------------------------------------------------------|
G|------------------------------------------------------|
D|-6---11-----------------------------------------------|
A|-4x8-9-x8---------------------------------------------|
E|------------------------------------------------------|

Pre-Chorus:
play this twice

e|-------------------------------------------------------|
B|-------------------------------------------------------|
G|-------------------------------------------------------|
D|---------6---11----------------------------------------|
A|-6---4---4x8-9x8---------------------------------------|
E|-4x8-2x8-----------------------------------------------|

Chorus:
I'm not sure if the timing's right

e|--------------------------------------------------------|
B|--------------------------------------------------------|
G|--------------------------------------------------------|
D|-6---------------6--------------------------------------|
A|-4x8-6---9---4---4x8-6---4---4--------------------------|
E|-----4x8-7x8-2x8-----4x8-2x8-2x8------------------------|

Outro:
I don't know the timing for the outro you'll have to work it out for yourself

e|---------------------------------------------------------|
B|---------------------------------------------------------|
G|---------------------------------------------------------|
D|-6-------------------------------------------------------|
A|-4-6-4---------------------------------------------------|
E|---4-2---------------------------------------------------|

Order:
Intro
Verse 1
Pre-Chorus
Chorus
Link
Verse 2
Pre-Chorus
Chorus
Outro
Tap to rate this tab
# A B C D E F G H I J K L M N O P Q R S T U V W X Y Z