Song name
# A B C D E F G H I J K L M N O P Q R S T U V W X Y Z

The Enemy - Elephant Song tab

-------------------------------------------------------------------------------
			     Elephant song – the enemy 
-------------------------------------------------------------------------------
Tabbed by: Joe McArdle
Email:joe_mac12@hotmail.com

Tuning: standard 

Intro 
e|---------------------------------------------------------------------------|
B|---------------------------------------------------------------------------|
G|---------------------------------------------------------------------------|
D|--------5/7/5----------------------------------------------------------------|X?
A|---------------------------------------------------------------------------|
E|---------------------------------------------------------------------------|
then
e|---------------------------------------------------------------------------|
B|---------------------------------------------------------------------------|
G|---------------------------------------------------------------------------|
D|---------------------------------------------------------------------------|
A|-------0~~~----------------------------------------------------------------|
E|---------------------------------------------------------------------------|
Intro riff begins
e|---------------------------------------------------------------------------|
B|---------------------------------------------------------------------------|
G|---------------------------------------------------------------------------|
D|--------5/7-7p5-5---4---5---5h7---5/7--------------------------------------|X4
A|------0-----------0---0---0-----0------------------------------------------|
E|---------------------------------------------------------------------------|

e|---------------------------------------------------------------------------|
B|---------------------------------------------------------------------------|
G|---------------x-------------------555-------------------------------------|
D|-------5h7-7-5-x---X3-----5h7-7-5------------------------------------------|X2
A|-----0---------x--------0--------------------------------------------------|
E|---------------------------------------------------------------------------|




Then 
e|---------------------------------------------------------------------------|
B|---------------------------------------------------------------------------|
G|-----------X1------------x3------------------------------------------------|
D|----55/77-7--5-5-55/77-7---------------------------------------------------|
A|----33/55-5--3-3-33/55-5---------------------------------------------------|
E|---------------------------------------------------------------------------|
VERSE
e|---------------------------------------------------------------------------|
B|---------------------------------------------------------------------------|
G|---------------------------------------------------------------------------|
D|--------5/7-7p5-5---4---5---5h7---5/7--------------------------------------|X4
A|------0-----------0---0---0-----0------------------------------------------|
E|---------------------------------------------------------------------------|

e|---------------------------------------------------------------------------|
B|---------------------------------------------------------------------------|
G|---------------x-------------------555-------------------------------------|
D|-------5h7-7-5-x---X3-----5h7-7-5------------------------------------------|X2
A|-----0---------x--------0--------------------------------------------------|
E|---------------------------------------------------------------------------|
Chorus 
e|---------------------------------------------------------------------------|
B|---------------------------------------------------------------------------|
G|-----------X1------------x3------------------------------------------------|
D|----55/77-7--5-5-55/77-7---------------------------------------------------|
A|----33/55-5--3-3-33/55-5---------------------------------------------------|
E|---------------------------------------------------------------------------|

VERSE
e|---------------------------------------------------------------------------|
B|---------------------------------------------------------------------------|
G|---------------------------------------------------------------------------|
D|--------5/7-7p5-5---4---5---5h7---5/7--------------------------------------|X4
A|------0-----------0---0---0-----0------------------------------------------|
E|---------------------------------------------------------------------------|


Outro 
e|---------------------------------------------------------------------------|
B|---------------------------------------------------------------------------|
G|---------------------------------------------------------------------------|
D|--------4--5---5h7---5/7---------------------------------------------------|X8
A|------0--0---0-----0-------------------------------------------------------|
E|---------------------------------------------------------------------------|
END ON 
e|-----------------------------|
B|-----------------------------|
G|-----------------------------|
D|-----------------------------|
A|------0~~~~------------------|
E|-----------------------------|



| /  slide up
| \  slide down
| h  hammer-on
| p  pull-off
| ~  vibrato
| +  harmonic
| x  Mute note
===============================================================================
That’s it 
Quality song
Quality new album
Tap to rate this tab
# A B C D E F G H I J K L M N O P Q R S T U V W X Y Z