Song name
# A B C D E F G H I J K L M N O P Q R S T U V W X Y Z

The Enemy - 40 Days And 40 Nights tab

Intro
 ]------|
 ]------|
 ]------| x16
 ]--11--|
 ]------|
 ]------|

 ]------|
 ]------|
 ]--12--| x16
 ]------|
 ]------|
 ]------|

 ]------|
 ]------|
 ]--11--| x16
 ]------|
 ]------|
 ]------|

 ]------|
 ]------|
 ]------| x16
 ]--11--|
 ]------|
 ]------|

Verse
 ]----------------------------------------------------------------|
 ]----------------------------------------------------------------|
 ]--66-66-66-66-------------1111-1111-1111-1111-66-66-66-66-------|
 ]--66-66-66-66-77-77-77-77-1111-1111-1111-1111-66-66-66-66-------|
 ]--44-44-44-44-77-77-77-77-9-9--9-9--9-9--9-9--44-44-44-44-------|
 ]--------------55-55-55-55---------------------------------------|

 ]----------------------------------------------------------------|
 ]----------------------------------------------------------------|
 ]--66-66-66-66-------------1111-1111-1111-1111-66666666----------|
 ]--66-66-66-66-77-77-77-77-1111-1111-1111-1111-66666666----------|
 ]--44-44-44-44-77-77-77-77-9-9--9-9--9-9--9-9--44444444----------|
 ]--------------55-55-55-55---------------------------------------|

Pre-Chorus
 ]----------------------------------------------------------------|
 ]----------------------------------------------------------------|
 ]----------------------------------------------------------------|
 ]----------------------------------------------------------------|
 ]----------------------------------------------------------------|
 ]-7-8-9-7-8-9-7-8-9-7-8-9-7-8-9-0-1-2-0-1-2-0-1-2-0-1-2-0-1-2----|

Chorus
 ]----------------------------------------------------------------|
 ]----------------------------------------------------------------|
 ]---66666666-----------------------------------------------------| x4
 ]---66666666-77777777--------------------------------------------|
 ]---44444444-77777777--------------------------------------------|
 ]------------55555555--------------------------------------------|
Tap to rate this tab
# A B C D E F G H I J K L M N O P Q R S T U V W X Y Z