Song name
# A B C D E F G H I J K L M N O P Q R S T U V W X Y Z

The Epoxies - Toys tab

Song: Toys
Artist: The Epoxies
Album: Stop The Future
Tabbed by: CadetPD
Email: Ska_Boss66@hotmail.com

This song is mostly the synth riff that repeats the entire way through.
With slight modulation and effects on it that change it a wee bit here and there.

First off, heres the synth riff tabbed for guitar:

E|-----------------|
B|-------0---0-----|
G|-0--0----0-------|
D|-----------------|   x4
A|-----------------|
E|-----------------|

|-----------------|
|-----------------|
|--2--2--7-2-7----|   x4
|-----------------|
|-----------------|
|-----------------|


|-----------------|
|--1--1----1------|
|--------0---0----|   x4
|-----------------|
|-----------------|
|-----------------|

|-----------------|
|-0--0----0-------|
|--------0---0----|    x4
|-----------------|
|-----------------|

It wont sound like much on the guitar. But thats it. If you curious. Double layer a 
saw waves and give them lots of flanger and delay on a synth. It should sound like it ok.

The guitar mostly does the same thing through the song as well.


It goes G

E|--------------------------------------|
B|--------------------------------------|
G|--------------------------------------|
D|--5--------5--------5--------5--------|
A|--5--5--5--5--5--5--5--5--5--5--5--5--|
E|--3--3--3--3--3--3--3--3--3--3--3--3--|

D

|--------------------------------------|
|--------------------------------------|
|--7--------7--------7--------7--------|
|--7--7--7--7--7--7--7--7--7--7--7--7--|
|--5--5--5--5--5--5--5--5--5--5--5--5--|
|--------------------------------------|

C

|--------------------------------------|
|--------------------------------------|
|--5--------5--------5--------5--------|
|--5--5--5--5--5--5--5--5--5--5--5--5--|
|--3--3--3--3--3--3--3--3--3--3--3--3--|
|--------------------------------------|

G

|--------------------------------------|
|--------------------------------------|
|--------------------------------------|
|--5--------5--------5--------5--------|
|--5--5--5--5--5--5--5--5--5--5--5--5--|
|--3--3--3--3--3--3--3--3--3--3--3--3--|


Slap some good crunchy distortion and palm mute it all.
Listen for the changes. And thats the entire song. Except for the solo.

The next part is the "Chorus"
Which Is not really a chorus, because the instruments are doing pretty much the same 
Just slightly differently.

The guitar keeps doing the same thing, just not palm muted. And at the start of every 
strum the chord once. Listen to the song to hear what im talking about, its not hard to miss.

Ill get the guitar solo later.
Enjoy.
Tap to rate this tab
# A B C D E F G H I J K L M N O P Q R S T U V W X Y Z