Song name
# A B C D E F G H I J K L M N O P Q R S T U V W X Y Z

The Ergs - Books About Miles Davis tab

Highlighted       Show chord diagrams
----------------------------------------------------------------------------
Books Bout Miles Davis
----------------------------------------------------------------------------

Am Gm Am Gm Am Gm Am Gm

Am

Am
I'm thinking of a girl
     B5                 Am
She came around here a couple years before
       B5
I'm much older now
    Am            Gm
And it would be wonderful
    Am             Gm
If I could re-write history
  Am            Gm
All of these could've beens
  Am                  Gm
I guess they're left to mystery

e----------------|
B--------8-------|
G------7---7-----|
D----7-------7---|
A--5-------------|
E----------------|  Am     F#m
And you could say I'm falling in love
Dm        Am
And you probably will

e----------------|
B----------------|
G--------5---5---|
D--7-x-x---7-----|
A----------------|
E----------------|

Am
I'm thinking a lot more
B5                  Am
I'm freaking out and you've heard it all before
B5
I apologize
Am                    Gm
And I'm having these restless nights
Am                    Gm
And I swear it's growing tired
Am         Gm                Am                 Gm
You say "it's all good" and "I'm preaching to the choir"

e----------------|
B--------8-------|
G------7---7-----|
D----7-------7---|
A--5-------------|
E----------------| Am            F#m
And you could say I'm "a little insane"
Dm              Am
And you probably will
Dm              Am
And you probably will


F#  G  A  B
F#  G  A  B
F#  G  A  B
F#  G  A  B

Am
This is all I've got
      B5                   Am
I'll quit my job and I'll sell this vacant lot that is my life
      B5                   Am              Gm             
              Gm
And I'll settle down in a place I've only read about in books about Miles Davis
    Am            Gm                  Am
I'll bust right through that door and say
            Gm
I'm here to save us and then

e----------------|
B--------8-------|
G------7---7-----|
D----7-------7---|
A--5-------------|
E----------------|    Am        F#m
You could say I should probably go
     Dm          Am   F#m
And you probably will
     Dm          Am   F#m
And you probably will
     Dm          Am   F#m
And you probably will
     Dm          Am   F#m
And you probably will
Tap to rate this tab
 
# A B C D E F G H I J K L M N O P Q R S T U V W X Y Z