Song name
# A B C D E F G H I J K L M N O P Q R S T U V W X Y Z

The Ergs - Your Cheated Heart tab

-------------------------------------------------------------------------
Your Cheated Heart
-------------------------------------------------------------------------


intro
e----------------------------------------------|
B----------------------------------------------|
G-6-6-6-6-6-6-6-6-6-6-6-6-6-6-6-4--------------|
D-6-6-6-6-6-6-6-6-6-6-6-6-6-6-6-6--------------|
A-4-4-4-4-4-4-4-4-4-4-4-4-4-4-4-4--------------|
E----------------------------------------------|

e----------------------------------------------|
B----------------------------------------------|
G-6-6-6-6-6-6-6-6-6-6-6-6-6-6-6-------4--------|
D-6-6-6-6-6-6-6-6-6-6-6-6-6-6-6-x-x-x-6--------|
A-4-4-4-4-4-4-4-4-4-4-4-4-4-4-4-x-x-x-4--------|
E-------------------------------x-x-x----------|

e----------------------------------------------|
B----------------------------------------------|
G-6-6-6-6-6-6-6-6-6-6-6-6-6-6-6-4--------------|
D-6-6-6-6-6-6-6-6-6-6-6-6-6-6-6-6--------------|
A-4-4-4-4-4-4-4-4-4-4-4-4-4-4-4-4--------------|
E----------------------------------------------|

e----------------------------------------------|
B----------------------------------------------|
G-6-6-6-6-6-6-6-6-6-6-6-6-6-6-6----------------|
D-6-6-6-6-6-6-6-6-6-6-6-6-6-6-6-9--------------|
A-4-4-4-4-4-4-4-4-4-4-4-4-4-4-4-9--------------|
E-------------------------------7--------------|

e----------------------------------------------|
B----------------------------------------------|
G--11-10-8-6--6-6-6-6-6-6-6-6-6-6-6-6-6-6-6-6--| x2
D--11-10-8-6--6-6-6-6-6-6-6-6-6-6-6-6-6-6-6-6--|
A--9--8--6-4--4-4-4-4-4-4-4-4-4-4-4-4-4-4-4-4--|
E----------------------------------------------|

e----------------------------------------------|
B----------------------------------------------|
G--11-10-4-2-----------------------------------|
D--11-10-4-2-----------------------------------|
A--9--8--6-4-----------------------------------|
E----------------------------------------------|

Verse
e-----------------------------------------------------------|
B-----------------------------------------------------------|
G--6-6-6-6-6-6-6-6-6-6-6-6-6-6-6--4-4------6-6-6-6-6-6-6-6--|
D--6-6-6-6-6-6-6-6-6-6-6-6-6-6-6--4-4-4-4--6-6-6-6-6-6-6-6--|
A--4-4-4-4-4-4-4-4-4-4-4-4-4-4-4--2-2-4-4--4-4-4-4-4-4-4-4--|
E-------------------------------------2-2-------------------|

e--------------------------------------------------------------------|
B--------------------------------------------------------------------|
G--6-6-6-6-6-6-6-x-6~--6-6-6-6-6--------------------6-6-6-6-6-6-6-6--|
D--6-6-6-6-6-6-6-x-6~--6-6-6-6-6------4-3-----------6-6-6-6-6-6-6-6--|
A--4-4-4-4-4-4-4-x-4~--4-4-4-4-4--2-2------------0--4-4-4-4-4-4-4-4--|
E------------------------------------------4-4-2---------------------|

Chorus
e-----------------------------------------------------|
B-----------------------------------------------------|
G--4-4-4-4----------4-4-4-4----------4-4-4-4----------|
D--4-4-4-4-6-6-6-6--4-4-4-4-6-6-6-6--4-4-4-4-4-4-4-4--|
A--2-2-2-2-6-6-6-6--2-2-2-2-6-6-6-6--2-2-2-2-4-4-4-4--|
E----------4-4-4-4----------4-4-4-4----------2-2-2-2--|


Outro
e----------------------------------------------|
B----------------------------------------------|
G--6-6-6-6-6-6-6-6-6-6-6-6-6-6-6-6--11-10-8-6--|
D--6-6-6-6-6-6-6-6-6-6-6-6-6-6-6-6--11-10-8-6--|
A--4-4-4-4-4-4-4-4-4-4-4-4-4-4-4-4--9--8--6-4--|
E----------------------------------------------|
Tap to rate this tab
# A B C D E F G H I J K L M N O P Q R S T U V W X Y Z