Song name
# A B C D E F G H I J K L M N O P Q R S T U V W X Y Z

The Ergs - The Clocks The Clocks tab

-------------------------------------------------------------
The Clocks, The Clocks
-------------------------------------------------------------

e--------------------------------------|
B--------------------------------------|
G--4-4-4-4-4-4-4-4---------------------| x3
D--4-4-4-4-4-4-4-4--7-7-7-7--4-4-4-4---|
A--2-2-2-2-2-2-2-2--7-7-7-7--4-4-4-4---|
E-------------------5-5-5-5--2-2-2-2---|

e-------------------------|
B-------------------------|
G--4-4-4-4-4-4-4-4--------|
D--4-4-4-4-4-4-4-4--------|
A--2-2-2-2-2-2-2-2--------|
E-------------------------|


e-------------------------------------------------------|
B-------------------------------------------------------|
G----------4-4-4-4----------4-4-4-4---------------------|
D--2-2-2-2-4-4-4-4--2-2-2-2-4-4-4-4--2-2-2-2-4-4-4-4----|
A--2-2-2-2-2-2-2-2--2-2-2-2-2-2-2-2--2-2-2-2-4-4-4-4----|
E--0-0-0-0----------0-0-0-0----------0-0-0-0-2-2-2-2----|

e------------------------------------|
B------------------------------------|
G-4-4-4-4-4-4-4-4-4-4-4-4-4-4-4-4----|
D-4-4-4-4-4-4-4-4-4-4-4-4-4-4-4-4----|
A-2-2-2-2-2-2-2-2-2-2-2-2-2-2-2-2----|
E------------------------------------|

e------------------------------|
B------------------------------|
G------------------------------| x4
D--7-7-7-7-7-7--4-4-4-4-4-4-4--|
A--7-7-7-7-7-7--4-4-4-4-4-4-4--|
E--5-5-5-5-5-5--2-2-2-2-2-2-2--|


e--------------------------------------------------------------|
B--------------------------------------------------------------|
G--9-------4-4-4-4-4-4-4-4--9-9-9-9-----------4-4-4-4-4-4-4-4--|
D--9---4---4-4-4-4-4-4-4-4--9-9-9-9--4-4-4-4--4-4-4-4-4-4-4-4--|
A--7---4---2-2-2-2-2-2-2-2--7-7-7-7--4-4-4-4--2-2-2-2-2-2-2-2--|
E------2-----------------------------2-2-2-2-------------------|

e---------------------------------------|
B---------------------------------------|
G--------------------4-4-4-4------------| x4
D--2-2-2-2--4-4-4-4--4-4-4-4--6-6-6-6---|
A--2-2-2-2--4-4-4-4--2-2-2-2--6-6-6-6---|
E--0-0-0-0--2-2-2-2-----------4-4-4-4---|

e--------------------|
B--------------------|
G--------------------|
D--2-2-2-2--4-4-4-4--|
A--2-2-2-2--4-4-4-4--|
E--0-0-0-0--2-2-2-2--|


e-----------------------------------------------------------|
B-----------------------------------------------------------|
G-----------------------------------------------------------|
D--7-7-7-7-7-7--4-4-4-4-4-4---7-7-7-7-7-7--4-4-4-4-4-4---9~-|
A--7-7-7-7-7-7--4-4-4-4-4-4---7-7-7-7-7-7--4-4-4-4-4-4---9~-|
E--5-5-5-5-5-5--2-2-2-2-2-2---5-5-5-5-5-5--2-2-2-2-2-2---7~-|
Tap to rate this tab
# A B C D E F G H I J K L M N O P Q R S T U V W X Y Z