Song name
# A B C D E F G H I J K L M N O P Q R S T U V W X Y Z

The Evpatoria Report - Mithridate tab

Help us improve GuitareTab! Take a short survey!
-------------------------------------------------------------------------------
			    The Evpatoria Report - Mithridate
-------------------------------------------------------------------------------
Tabbed by: Dahn "raelz" Jahn
Email: dahnraelz@gmail.com

This is the more or less finished tab for the guitar playing the harmonics part in song 
from album Maar (2008).

I don't really believe anybody needs more detailed tab, as I am sure you all can figure 
is each part played.
Feel free to email me with any question, I've been just playing this for myself so I 
to write it down, if anybody needs more, I will be happy to help.

Everything is harmonics, except the E string of course.

1st Part
e|--------------------------|
B|----------------7---------|
G|---------------------12---|
D|-----------7--------------|
A|------7-------------------|
E|--0-----------------------|

2nd Part
e|------------------------- |
B|--------------------------|
G|----------------7---------|
D|-----------7---------12---|
A|------7-------------------|
E|--0-----------------------|

3rd Part + variation always played after
e|------------------------------|------------------------------|
B|-------------------5----7-----|--------------------7----5----|
G|---------------7--------------|---------------7--------------|
D|---------12-------------------|---------12-------------------|
A|---12-------------------------|---12-------------------------|
E|------------------------------|------------------------------|

And that's pretty much it. Sorry for lower quality of my work, I just think something is 
than nothing.

===============================================================================

Link to TER's site: http://www.the-evpatoria-report.net/
Related for Mithridate tab