Song name
# A B C D E F G H I J K L M N O P Q R S T U V W X Y Z

The Expendables - Take A Ticket tab

Song:Take a Ticket
Album:The Expendables

^=Bend
h=Hammer on
p=Pull off
~=Let ring

Intro First Guitar:

E|--------------------------------------|
B|--------------------------------------|
G|--------------------------------------|
D|-----------------------4---2----------|
A|-22222-5-44444-7-55555---5---4-5-4-2-2|
E|--------------------------------------|

Intro Second Guitar:

E|---------------------------------------|
B|---------------------------------------|
G|---------------------------------------|
D|------------------------9---7----------|
A|-55555-9-77777-10-99999---9---7-9-7-5-5|
E|---------------------------------------|

Verse Rhythm Guitar:

E|-2-2-5-5-3-3-2-2|
B|-3-3-5-5-3-3-3-3|
G|-4-4-6-6-4-4-4-4|
D|-4-4-7-7-5-5-4-4|
A|-2-2-7-7-5-5-2-2|
E|-----5-5-3-3----|

Verse Lead Guitar:

E|------7-|--------|----------------|------7-|-----|----------------|
B|-10p7---|-7-10---|----------------|-10p7---|-----|----------------|
G|--------|------7-|----------------|--------|-9p7-|----------------|
D|--------|--------|-7-9------------|--------|-----|-7-9------------|
A|--------|--------|-----7-9--------|--------|-----|-----7-9--------|
E|--------|--------|---------10-9-7-|--------|-----|---------10-9-7-|

Chorus:
                    End on this
E|-77--55--77--77|------7~-------|
B|-77--55--88--77|------8~-------|
G|-77--66--99--77|------9~-------|
D|-77--77--99--99|------9~-------|
A|-55--77--77--99|------7~-------|
E|-----55------77|---------------|

Solo:

E|----------------------9-10-14--------------------------------------------------------|
B|-------------------10---------12--7-9-9h10p9-7---------------------------------------|
G|-^9p7-9-7---7-9/11-----------------------------9-7-9-6-7---6-------------------------|
D|----------9----------------------------------------------9---7-9-----------------4---|
A|-----------------------------------------------------------------5-7-4-5-5h7p5-4-----|
E|-----------------------------------------------------------------------------------7-|

E---------------------9/12-12h14---------------7--------------12-14-12-14---|
B------------------10------------12--7-9^9p7-7----7--------14-------------12|
G-----------6-9/11--------------------------------7^9p7-9-------------------|
D-------7-9-----------------------------------------------------------------|
A---5-9---------------------------------------------------------------------|
E-7-------------------------------------------------------------------------|
Tap to rate this tab
# A B C D E F G H I J K L M N O P Q R S T U V W X Y Z