Song name
# A B C D E F G H I J K L M N O P Q R S T U V W X Y Z

The Expendables - Tight Squeeze tab

Title - Tight Squeeze
Artist - The Expendables
Album - The Expendables
Track - 1
Tabbed By - Richard K.
E-mail - Island_guitar_boy88@hotmail.com or Island_buddah@yahoo.com

Intro Play 2x

e--0--1--0--3--|
B--1--3--1--3--|
G--2--2--0--0--|
D--2--0--2--0--|
A--0--x--3--2--|
E--x--x--x--3--|

Chorus 1 "Tight Sueeze, Cool Breeze" Play 1x

e--5------5--|
B--5------6--|
G--5--4x--7--|12x
D--7------7--|
A--7------5--|
E--5------5--|

Verse 1 "Were About To Embark" Play 2x

e--5------5------3------3--|
B--5------6------5------3--|
G--5--4x--7--4x--5--4x--4--|4x
D--7------7------5------5--|
A--7------5------3------5--|
E--5------5------x------3--|

Pre Chorus 1 "Coney, Convey, Convey, Convey" Play 4x

e--5------5--|
B--5------6--|
G--5--2x--7--|2x
D--7------7--|
A--7------5--|
E--5------5--|

Chorus 2 "Tight Sueeze, Cool Breeze" Play 1x

e--5------5--|
B--5------6--|
G--5--4x--7--|12x
D--7------7--|
A--7------5--|
E--5------5--|

Verse 2 "So Up This Pivotal Peak We Climb" Play 2x

e--5------5------3------3--|
B--5------6------5------3--|
G--5--4x--7--4x--5--4x--4--|4x
D--7------7------5------5--|
A--7------5------3------5--|
E--5------5------x------3--|

Pre Chorus 2 "Too Tall, Too Tall, Too Tall Too Tall" Play 4x

e--5------5--|
B--5------6--|
G--5--2x--7--|2x
D--7------7--|
A--7------5--|
E--5------5--|

Solo "Break"

e-----------------------------------------------|
B-----------------------------------------------|
G-----------------------------------------------| Repeat 2x
D-----------------------------------------------|
A-------33-2------353-2-------33-2-----3h5\2h3--|
E--555-5--5-555--5-------555-5--5-555-5---------|


e-----------------------------------------------|
B-----------------------------------------------|
G-------55-4------575-4-------55-4-----5h7b-----| Repeat 2x
D--777-7--7-777--7-------777-7--7-777-7---------|
A-----------------------------------------------|
E-----------------------------------------------|

Then

e--5-------------------|
B----5-8-5-------------|     Acapella
G----------8-7---------| "Tight Squeeze, Cool Breeze
D----------------5-7/--| This Is Something That will
A--------------7-------| Never Let Us Down" Then.....
E----------------------|

Chorus 3 "Tight Sueeze, Cool Breeze" Play 1x

e--5------5--|
B--5------6--|
G--5--4x--7--|12x
D--7------7--|
A--7------5--|
E--5------5--|

End With The Ending Solo And Chords

e--0--1--0--3--|
B--1--3--1--3--|
G--2--2--0--0--|
D--2--0--2--0--|
A--0--x--3--2--|
E--x--x--x--3--|

e-----------------------------------------------------|
B-----------------------------------------------------|
G--9p7----------9p7---------9p7--7h9-7----------------|
D-----10-7h10p7----107h10p7----10--------10--10h12/9--|
A-----------------------------------------------------|
E-----------------------------------------------------|

e----------------------------------------------------------------|
B----------------------------------------------------------------|
G--9p7----------9p7---------9p7--7h9-7---------------------------|
D-----10-7h10p7----107h10p7----10--------10--10h12/9--10p9-------|
A----------------------------------------------------------11/12-|
E----------------------------------------------------------------|

Well I Gotta Be Honest This Was The Biggest Tab Ive Done And It Was Kinda Hard To 
Here It Is...Hope U Enjoy It...E-Mail Me If U Have Any Questions...Thanx.
Tap to rate this tab
 
# A B C D E F G H I J K L M N O P Q R S T U V W X Y Z