Song name
# A B C D E F G H I J K L M N O P Q R S T U V W X Y Z

The Expendables - No Time To Worry tab

----------The Expendables------------|
----------No Time To Worry-----------|
tabbed by:bowlfortwo420
email:drkxnessx@yahoo.com
============================================================================
This is the best i could do for the intro its not the full intro but it works anyway its 
very very very easy song!!!!
e|-----------------------------------------------------------|
b|---3---10-8-7----3---10-8-7----3---10-8-7------------------|
g|--4-------------4-------------4----------------------------|X4
d|-----------------------------------------------------------|
a|-----------------------------------------------------------|
E|-----------------------------------------------------------|

after the 4th timeplay above play this

e|------------|
b|--8-7-5-7---|
g|------------|
d|------------|
a|------------|
E|------------|


then


e|-----------------------------------------------------------|
b|---3-2-2h3p2-0--0-3-0-3-5-3--------------------------------|
g|-----------------------------------------------------------|
d|-----------------------------------------------------------|
a|-----------------------------------------------------------|
E|-----------------------------------------------------------|
Tap to rate this tab
 
# A B C D E F G H I J K L M N O P Q R S T U V W X Y Z