Song name
# A B C D E F G H I J K L M N O P Q R S T U V W X Y Z

The Expendables - Bowl For Two tab

-------------------------------------------------------------------------------
			     Bowl For Two - The Expendables
-------------------------------------------------------------------------------
Tabbed by: TheMutts
Email: ZooYork5022@yahoo.com

Tuning: Standard

INTRO
[|Guitar A
e|---------------------------------------------------------------|
B|---------------------------------------------------------------|
G|---------------------------------------------------------------|
D|--------------------0---0h2p0---0------------------------------|
A|----0---0h2p0---0-2---2-------2---2--/7------------------------|
E|--3---3-------3------------------------------------------------|
[|Guitar B
e|--------------------------------------0------3---0-------3---3-|
B|---------------------------------------0-----0-----0---0---0---|
G|----------------------------------------0----0-------0---------|
D|-----------------------------------------2---2-----------------|
A|---------------------------------------------------------------|
E|---------------------------------------------------------------|

[|Guitar A
e|------------------------------------------------------------------|
B|------------------------------------------------------------------|
G|------------------------------------------------------------------|
D|--------------------0---0h2p0---0------------------------------0--|
A|----0---0h2p0---0-2---2-------2---2----------------------0h2p0----|
E|--3---3-------3----------------------------------------3----------|
[|Guitar B
e|--------------------------------------0---------0------12+--------|
B|---------------------------------------0-------0-------12+--------|
G|----------------------------------------0-----0-------------------|
D|-----------------------------------------2---2--------------------|
A|------------------------------------------------------------------|
E|------------------------------------------------------------------|


[|Guitar A
e|---------------------------------------------------------------|
B|---------------------------------------------------------------|
G|---------------------------------------------------------------|
D|--------------------0---0h2p0---0------------------------------|
A|----0---0h2p0---0-2---2-------2---2--/7------------------------|
E|--3---3-------3------------------------------------------------|
[|Guitar B
e|--------------------------------------0------3---0-------3---3-|
B|---------------------------------------0-----0-----0---0---0---|
G|----------------------------------------0----0-------0---------|
D|-----------------------------------------2---2-----------------|
A|---------------------------------------------------------------|
E|---------------------------------------------------------------|

[|Guitar A
e|------------------------------------------------------------------|
B|------------------------------------------------------------------|
G|------------------------------------------------------------------|
D|--------------------0---0h2p0---0---------------------------------|
A|----0---0h2p0---0-2---2-------2---2-------------------------------|
E|--3---3-------3---------------------------------------------------|
[|Guitar B
e|--------------------------------------0----------------12+--------|
B|---------------------------------------0---------------12+--------|
G|----------------------------------------0-------------------------|
D|-----------------------------------------2------------------------|
A|------------------------------------------------------------------|
E|------------------------------------------------------------------|



SOLO (time code: 3:00)
e|----------------------------------------------12---------------------------|
B|-------------------------------------------15-----------15-----------------|
G|--14b---14p12h14---12-14-14b-p12---------12-----12--14b~~~~14--12-14-------|
D|---------------------------------14~---------------------------------14~---|
A|---------------------------------------------------------------------------|
E|---------------------------------------------------------------------------|

e|----------------------------------------------------------------|
B|-------------------------------------------17-17----17-15/17----|
G|-----------12h14p12----------12h14h16--/15-------15-------------|
D|--12h14p12----------12h14h16------------------------------------|
A|----------------------------------------------------------------|
E|----------------------------------------------------------------|

e|--15-17-17b-p15----15~----15----15----------------------------------|
B|----------------17-----------15----17------------------------15b----|
G|----------------------------------------12-14-14b-p12----12---------|
D|------------------------------------------------------14------------|
A|--------------------------------------------------------------------|
E|--------------------------------------------------------------------|


| /  slide up
| \  slide down
| h  hammer-on
| p  pull-off
| ~  vibrato
| +  natural harmonic
| *  artificial harmonic
| x  palm mute note
| b  bend note
| 
===============================================================================

Tap to rate this tab
 
# A B C D E F G H I J K L M N O P Q R S T U V W X Y Z