Song name
# A B C D E F G H I J K L M N O P Q R S T U V W X Y Z

The Expendables - Ganja Smuggling tab

-------------------------------------------------------------------------------
			     GANJA SMUGGLING - The Expendables
-------------------------------------------------------------------------------
Tabbed by: Aaron
Email: amkippy@yahoo.com

              first part x2
e|------------------------------|---------------------------------------------|
B|------------------------------|---------------------------------------------|
G|--11--11-11-11-11--9----------|--9--9-9-9-9---------------------------------|
D|-----------------------12--12-|--------------12--11--9--9-9-9--11-12-11-9---|
A|------------------------------|---------------------------------------------|
E|------------------------------|---------------------------------------------|
                            Repeat this whole thing 2x

    On the third time its the same except the end is
e|---------------------------------------------------------------------------|
B|---------------------------------------------------------------------------|
G|--9--9-9-9-9-----------9-9-9-9---------------------------------------------|
D|--------------12--11------------12--9--11--12------------------------------|
A|---------------------------------------------------------------------------|
E|---------------------------------------------------------------------------|

                            x2       
e|------------------------------|--------------------------------------------|
B|------------------------------|--------------------------------------------|
G|--11--11-11-11-11--9----------|--9--9-9-9-9--------------------------------|
D|----------------------12--12--|--------------12--11--9--9-9-9--11-12-11-9--|
A|------------------------------|--------------------------------------------|
E|------------------------------|--------------------------------------------|
                          Repeat whole thing 2x 
                          except on second time end with:

                          e|------------------------|
                          B|------------------------|
                          G|---9--9-9-9-9-----------|
                          D|--------------12--11--9-|
                          A|------------------------|

    Distorted Part           x2
e|------------------------------|-----------------------------------------|
B|------------------------------|-----------------------------------------|
G|--11--11-11-11-11--9----------|--9--9-9-9-9-----------------------------|
D|----------------------12--12--|--------------12--11-11----9-11-12-11-9--|
A|------------------------------|------------------------12---------------|
E|------------------------------|-----------------------------------------|
                       
e|------------------------------|----------------------------------------|
B|------------------------------|----------------------------------------|
G|--11--11-11-11-11--9----------|--9--9-9-9-9--7h9p7--6h7----------------|
D|----------------------12--12--|-------------------------7-9------------|
A|------------------------------|----------------------------------------|
E|------------------------------|----------------------------------------|

   Solo

e|---------------------------------------------------14-----17-----19----|
B|--------------------------11-12\--/12--12-12-17-17----12-----12--------|
G|-----------------14-14-14----------------------------------------------|
D|------------8-9--------------------------------------------------------|
A|--12-12-12-------------------------------------------------------------|
E|-----------------------------------------------------------------------|

e|------------------------------------------------10---------------------|
B|-----------------------------------12-15-12-15--14b(15)--12-------12-12|
G|--------------------------14-14-14--------------------------11-14------|
D|------------8-9----8-9-------------------------------------------------|
A|--12-12-12------12-----------------------------------------------------|
E|-----------------------------------------------------------------------|

e|---------------------------------------------------------------------------------|
B|12-12-12-------12---12-12-12-------12--12-12-12----------------------------------|
G|---------11-14---------------11-14--------------11-14--------16p14p11-14p11------|
D|-------------------------------------------------------14-16----------------14---|
A|-------------------------------------------------------------------------------14|
E|---------------------------------------------------------------------------------|

e|------------------------------------------------------------------------|
B|-------14-14h15p14p12----12--12------12-------15-15-15------------------|
G|--/16-----------------14-----15b(16)-15b(16)-----------16-14-14-16------|
D|------------------------------------------------------------------------|
A|------------------------------------------------------------------------|
E|------------------------------------------------------------------------|

  Main Part
    F#m                     E
e|--9-----9-----9-----9----------------------------|
B|--10----10----10----10----9-----9----------------|
G|--11----11----11----11----9-----9----------------|
D|--11----11----11----11----9-----9----------------|
A|--9-----9-----9-----9-----7-----7----------------|
E|-------------------------------------------------|


Tap to rate this tab
# A B C D E F G H I J K L M N O P Q R S T U V W X Y Z