Song name
# A B C D E F G H I J K L M N O P Q R S T U V W X Y Z

The Expendables - Firestarter tab

-------------------------------------------------------------------------------
			     Firestarter - The Expendables
-------------------------------------------------------------------------------
Tabbed by: Luke
Email: lchvr5@mizzou.edu

Tuning:Standard

   *Muted downstroke followed by an upstroke to sound the hammer-on
e|-x9-----9---9---9---x-x--5--5--x--x--7--7-----------------------------------------------|
B|-x9h10--10--10--10--x-x--5--5--x--x--9--9-----------------------------------------------|
G|-x9h11--11--11--10--x-x--6--6--x--x--9--9------Repeat-for-intro-and-verses--------------|
D|-x9h11--11--11--11--x-x--7--7--x--x--9--9-------(palm-mute-chords-during-prechorus------|
A|-x9-----9---9---9---x-x--7--7--x--x--7--7-----------------------------------------------|
E|-x9-----9---9---9---x-x--5--5--x--x--7--7-----------------------------------------------|

Chorus
e|--2--2--x--5--5--x--5--5--x--7--7-----------------|
B|--2--2--x--7--7--x--5--5--x--9--9-----------------|
G|--2--2--x--7--7--x--6--6--x--9--9------Repeat-4x--|
D|--4--4--x--7--7--x--7--7--x--9--9-----------------|
A|--4--4--x--5--5--x--7--7--x--7--7-----------------|
E|--2--2--x--5--5--x--5--5--x--7--7-----------------|


| /  slide up
| \  slide down
| h  hammer-on
| p  pull-off
| ~  vibrato
| +  harmonic
| x  Mute note
===============================================================================
Tap to rate this tab
# A B C D E F G H I J K L M N O P Q R S T U V W X Y Z