Song name
# A B C D E F G H I J K L M N O P Q R S T U V W X Y Z

The Expendables - Let Her Go tab

-------------------------------------------------------------------------------
			     Let Her Go - The Expendables
-------------------------------------------------------------------------------
Tabbed by:jeremy silva
Email:jeremy_silva@yahoo.com
myspace.com/miah1204

Tuning:standard

verse:
F#-D5-A5-A5
X4
pre-chorus:
B-B-C5-C5
A5-A5-A5-A5
B-B-C5-C5
E7-E7-E7-E7
chorus:
A-F#-E7-D5
x2



e|--------------------------------10/14---14---14-17-17--16h17p16------------|
B|----5/7/5---5h7/9---10/14/10/14--------------------------------------------|
G|---------------------------------------------------------------------------|
D|---------------------------------------------------------------------------|
A|---------------------------------------------------------------------------|
E|---------------------------------------------------------------------------|

e|17-16--14-16--12-14-12/14--------------------------------------------------|
B|--------------------------------------------------------13-15--------------|
G|-------------------------------13-15-13h15p13----13--15--------------------|
D|---------------------------15-----------------15---------------------------|
A|---------------------------------------------------------------------------|
E|---------------------------------------------------------------------------|

e|-------------------17-16--14-16--12-14--12/14------------------------------|
B|-----13-15-17--13----------------------------------------------------------|
G|--15-----------------------------------------------------------------------|
D|---------------------------------------------------------------------------|
A|---------------------------------------------------------------------------|
E|---------------------------------------------------------------------------|


the first few licks of the solo are the otherlead parts in the song with little or no variations.
Tap to rate this tab
 
# A B C D E F G H I J K L M N O P Q R S T U V W X Y Z