Song name
# A B C D E F G H I J K L M N O P Q R S T U V W X Y Z

The Expendables - Sacrifice tab

e-------------------------15-|
B------------18--------------|
G------15-14-------15-14-----|
D---17----------17-----------|
A----------------------------|
E----------------------------|


e---------------------------------------------------------------|
B---15----------15----------15----------15----------15----------|
G------17-15-14----17-15-14----17-15-14----17-15-14----17-15-14-|
D---------------------------------------------------------------|
A---------------------------------------------------------------|
E---------------------------------------------------------------|

e---------------------------------------------------------------|
B---15----------15----------15----------15----------15----------|
G------17-15-14----17-15-14----17-15-14----17-15-14----17-15-14-|
D---------------------------------------------------------------|
A---------------------------------------------------------------|
E---------------------------------------------------------------|

e---------------------------------------------------------------|
B---15----------15----------15----------15----------15----------|
G------17-15-14----17-15-14----17-15-14----17-15-14----17-15-14-|
D---------------------------------------------------------------|
A---------------------------------------------------------------|
E---------------------------------------------------------------|

e---------------|
B---15----------|
G------17-15-14-|
D---------------|
A---------------|
E---------------|


e---------------------------------------------------------------|
B---------------------------------------------------------------|
G------15-15-14-15----15-15-14-15----15-15-14-15----15-15-17-14-|
D---12-------------12-------------13-------------13-------------|
A---------------------------------------------------------------|
E---------------------------------------------------------------|

e---------------------------------------------------------------|
B---------------------------------------------------------------|
G------15-15-14-15----15-15-14-15----15-15-14-15----15-15-17-14-|
D---12-------------12-------------13-------------13-------------|
A---------------------------------------------------------------|
E---------------------------------------------------------------|

e----------------------------------------------------------------|
B------------------------------------------------15--------------|
G------15-15-14-15----15-15-14-15----15-15-14-15----17-15-14-----|
D---12-------------12-------------13-------------------------17--|
A----------------------------------------------------------------|
E----------------------------------------------------------------|
Tap to rate this tab
 
# A B C D E F G H I J K L M N O P Q R S T U V W X Y Z