Song name
# A B C D E F G H I J K L M N O P Q R S T U V W X Y Z

The Expendables - The Cam Song tab

Tabbed by: Aaron


Tuning:standard


e|-15----15----15-----13/15---------------------------------|
B|----16----16----16--------16-----15b(16)p13\11/13---------|
G|-----------------------------17---------------------------|
D|----------------------------------------------------------|
A|----------------------------------------------------------|
E|----------------------------------------------------------|

e|-11h13p11-10h11p10-8h10p8-11b(12)p10p8----8-8b-8----------|
B|---------------------------------------11-----------------|
G|----------------------------------------------------------|
D|----------------------------------------------------------|
A|----------------------------------------------------------|
E|----------------------------------------------------------|

e|---------------------------------------------13---------|
B|------------------------------------------13------------|
G|------------------10-12h13p12-------12-15---------------|
D|10-12-13-10-12-13-------------13-15---------------------|
A|--------------------------------------------------------|
E|--------------------------------------------------------|

e|---------------------------------------11-13/15-------------15----|
B|-16(let ring)p15p13-15-11-13-13--15-16----------16-------15----15-|
G|---------------------------------------------------17-------------|
D|------------------------------------------------------17----------|
A|------------------------------------------------------------------|
E|------------------------------------------------------------------|

e|-----13-------------------------------------------------------|
B|-16b----16p13\11-13-------------------------------------------|
G|--------------------------------------------------------------|
D|--------------------------------------------------------------|
A|--------------------------------------------------------------|
E|--------------------------------------------------------------|
Tap to rate this tab
 
# A B C D E F G H I J K L M N O P Q R S T U V W X Y Z