Song name
# A B C D E F G H I J K L M N O P Q R S T U V W X Y Z

The Expendables - Wide Awake chords

Highlighted       Show chord diagrams
Intro(there are 2 guitars playing this, #2 just plays this, but with dist.
 Em  Bm  Am 
|-7--7---5----------------------------|
|-8--7---5----------------------------|
|-9--7---5----------------------------|
|-9--9---7--x-x-7s9-------------------|
|-7--9---7--x-x-5s7-------------------|
|----7---5----------------------------|

Verse
  Em  Bm Amaj Bm
|-7---7---5----7-------------------|
|-8---7---5----7-------------------|
|-9---7---6----7-------------------|
|----------------------------------|
|----------------------------------|
|----------------------------------|

Chorus
 Em  Bm  Dm(held 4 counts, not 2)
|-7--7---5----------------------------|
|-8--7---6----------------------------|
|-9--7---7----------------------------|
|-9--9---7----------------------------|
|-7--9---5----------------------------|
|----7--------------------------------|


Intro 2x
verse 8x
chorus 4x
Intro 2x
etc. 
Tap to rate this tab
 
# A B C D E F G H I J K L M N O P Q R S T U V W X Y Z