Song name
# A B C D E F G H I J K L M N O P Q R S T U V W X Y Z

The Expendables - Acoustic Wells tab

Performed by Geoff Weers of the expendables 

http://www.youtube.com/watch?v=cRrIEMt1_LE

This is the main single note riff of the verse with different fills at the end:
|-------------------|            
|-------------------|            
|----4-----5--7-----|            
|-------------------|            
|-------------------|            
|-3----3/5----------|           


Here is the verse with the chords (on the last chord he hits different fills with his pinky):
|----3-x----------8----------------|
|----3-x------5---8----------------|
|----4-x------5---9----------------|
|----5-x------5---10---------------|  
|----3-x---------------------------|
|-5--3-x--3/5----------------------|

Chorus:
|----------0---|
|-8--7--5--3---|
|-0--0--0--0---|
|-0--0--0--2---| 
|-7--5--3--3---|
|--------------|

|--------------|
|-8--7--5--7---|
|-0--0--0--0---|
|-0--0--0--0---| 
|-7--5--3--5---|
|--------------|



Lyrics:

Can I draw some water babe
From your Well
Can I draw some water Baby
'Cause mine has failed

The bucket won't come up
No matter how hard I crank
No the bucket won't come up
I think it sank

I walk the road between your house and mine
I hope the bridge hasn't collapsed
I hope the man at the gate will let me through
Lest he's still holding on to you

Holding on, to you

How has your garden grown
Are there fruit on them trees
Do you need a laborer to pull up them weeds?

Oh I am so lonely babe,
In my house on the hill
oh I am so lonely baby
The silence kills

I walk the road between your house and mine
I hope the bridge hasn't collapsed
I hope the man at the gate will help me through
Lest he's still holding on to you

Holding on to you

I wish that I could sit
In your garden again
And watch the stars at night
From your bed

I walk the road between your house and mine
I hope the bridge hasn't collapsed
I hope the man at the gate will let me through
Lest he's still holding on to you



Tap to rate this tab
# A B C D E F G H I J K L M N O P Q R S T U V W X Y Z