Song name
# A B C D E F G H I J K L M N O P Q R S T U V W X Y Z

The Expendables - Paper Chains tab

-----------------------------------------------------------------------
			     PAPER CHAINS - The Expendables
-----------------------------------------------------------------------
Tabbed by: bbman715888
Email: bbman715888@aol.com

Tuning: Standard

 D/A   A  Bm   G
e:-5---5---7---3
B:-7---5---7---3
G:-7---6---7---4
D:-7---7---9---5
A:-5---7---9---5
E:-5---5---7---3


Intro:
   D     A      Bm                    D     A       Bm
e|----------------------------------------------------------------|
B|-10----10-----7h8p7-----------------10----10------7-7-7-7-------|
G|-9h11--9-----9-----9-7---7-9-9/11---9h11--9---------------9~~---|
D|-----------------------9----------------------------------------|
A|----------------------------------------------------------------|
E|----------------------------------------------------------------|

Verse 1:

D          A               Bm
   what we see it makes no sense
D            A             Bm
   why do we constantly believe?
D          A                   Bm
   we have crumbled within our borders
D                 A              Bm
   and i'm afraid help is out of reach


Chorus:

G                    A                  Bm            
   they've taken our voices and they've locked them out 
G             A                  Bm
   with paper chains i'd like to burn
G               A         Bm 
  i cannot even enjoy a sunset
G           A               Bm
   when our world is on the verge

Verse 2: (D/A A Bm)

   all this weight has got my head hung low
   a certain pride that gives the air
   i dont wanna be another disciple
   as they sit in their liars chair

Chorus: (G A Bm)

   information has been bottled up
   in the news i never heard
   i cannot even sleep under the shining stars
   when our world is on the verge

  Solo:    
   D      A      Bm                     D      A      Bm
e|--------------------------------------------9h10-----------------|
B|-10-----10-----7h8p7------------- 10----10h12-----12^14----10-12-|
G|-9h11---9-----9-----9-7---7-9-9/11-------------------------------|
D|------------------------9----------------------------------------|
A|-----------------------------------------------------------------|
E|-----------------------------------------------------------------|
    
   D      A      Bm                   D      A      Bm
e|---------------------------------------------------------------|
B|-10-----10-----7h8p7----------------10-----10------------------|
G|-9h11---9-----9-----9-7---7h9-------9h11---9-------7-7-7-7-----|
D|------------------------9----------------------------------9---|
A|---------------------------------------------------------------|
E|---------------------------------------------------------------|

Verse 3: (D/A A Bm)

  so i sit and watch this world go by
   just like a lonesome bird
   i cannot even concentrate on my own thoughts
   when our world is on the verge
   when our world is on the verge
Tap to rate this tab
# A B C D E F G H I J K L M N O P Q R S T U V W X Y Z