Song name
# A B C D E F G H I J K L M N O P Q R S T U V W X Y Z

The Expendables - Silver Stallion tab

-------------------------------------------------------------------------------
			     Silver Stallion - The Expendables
-------------------------------------------------------------------------------
Tabbed by: Cpt.Frenchfries
Email:

Tuning:EADFBe

 Guitar 1 Intro 5x /Verse,chorus (repeat the chords through the whole song)
e|----------------------------------------------------------------------------|
B|----------------------------------------------------------------------------|
G|--77777---55555---33333-----------------------------------------------------|
D|--77777---55555---33333-----------------------------------------------------|
A|--55555---33333---11111-----------------------------------------------------|
E|----------------------------------------------------------------------------|
Guitar 2 : Right after guitar 1 played 3 times (solo) @Intro, and after chorus 2x
e|--------8--10---------------------------------------------------------------|
B|-----10~-------8~----8---10--8----------------------------------------------|
G|----------------10--------------10----7~------------------------------------|
D|----------------------------------------------------------------------------|
A|----------------------------------------------------------------------------|
E|----------------------------------------------------------------------------|
Verse: bass begins and afterwards Guitarist 1 and 2 join in
e|----------------------------------------------------------------------------|
B|----------------------------------------------------------------------------|
G|--77777---55555---33333-----------------------------------------------------|
D|--77777---55555---33333-----------------------------------------------------|
A|--55555---33333---11111-----------------------------------------------------|
E|----------------------------------------------------------------------------|
Chorus: Guitar 1 & 2
e|----------------------------------------------------------------------------|
B|----------------------------------------------------------------------------|
G|--77777---55555---33333-----------------------------------------------------|
D|--77777---55555---33333-----------------------------------------------------|
A|--55555---33333---11111-----------------------------------------------------|
E|----------------------------------------------------------------------------|

- Intro
- Verse
- Chorus 1x
- Verse
- Chorus 1x
- Solo (I'll figure it out later)
- Verse
- Chorus 5x
- Outro

 Outro : GUitar 2
e|----------------------------------------------------------------------------|
B|-------10-10-8----------8-8-------------------------------------------------|
G|---------------10---10------10-9--7~----------------------------------------|
D|----------------------------------------------------------------------------|
A|----------------------------------------------------------------------------|
E|----------------------------------------------------------------------------|
   Guitar
e|----------------------------------------------------------------------------|
B|----------------------------------------------------------------------------|
G|--77777---55555---3~--------------------------------------------------------|
D|--77777---55555---3~--------------------------------------------------------|
A|--55555---33333---1~--------------------------------------------------------|
E|----------------------------------------------------------------------------|


It's a quite easy song and I learned it by hearing the song!


comments are welcome! and thanks already for voting ;)
************************************

| /   slide up
| \   slide down
| h   hammer-on
| p   pull-off
| ~   vibrato
| +   harmonic
| x   Mute note
| b   Bend
| pb  Pre-bend
| br  Bend release
| pbr Pre-bend release
| brb Bend release bend

************************************
Tap to rate this tab
 
# A B C D E F G H I J K L M N O P Q R S T U V W X Y Z