The Expendables - Let Loose chords

Highlighted       Show chord diagrams
-------------------------------------------------------------------------------
			                          Let Loose - The Expendables
-------------------------------------------------------------------------------
Tabbed by: Colby Horvath
Email: sublime420@blazemail.com

Tuning: Standard

     G     Am    D     Em    C

e|---3-----5-----X-----7-----X----------------------------------------------|
B|---3-----5-----7-----8-----5----------------------------------------------|
G|---4-----5-----7-----9-----5----------------------------------------------|
D|---5-----7-----7-----9-----5----------------------------------------------|
A|---5-----7-----5-----7-----3----------------------------------------------|
E|---3-----5-----X-----X-----X----------------------------------------------|

Mostly down strokes on the up beat.


G           Am              G
  Six years hasn't been too long

          Am                 G 
  And I'm holding our stance strong

         Am            G    G   Am
  To the values of our fate

 G                 Am           G
  We partied every party to the ground

               Am              G
  Turned every backyard upside down

             Am         G        G   Am
  And by and by we have survived


Chorus:

 D               Em
  So don't start rollin'

 D             Em
  The flood is callin'

 D                Em            C     D   
  We're all gonna drown in here ton---ight

 G                  D               C
  This is something real for all of us

 G                   D            C
  And this is how we roll can you feel it

 G                   D                   C
  So girl get up and dance you know what to do

 G                                  D
  Don't be shy this is why you came out here tonight

     C
  to let loose


Second verse(same as before):

  Tomorrow morning's gonna hurt
  I hope I don't wake up in the dirt
  One more sip and I'm fallin' asleep
  Oh I've been hearing things I didn't do
  But that versions up to you
  And by and by we have survived


Repeat chorus



Bridge?:
  
      G          D          Em         C
  Let loose, Let loose, Let loose, Let loose

      G          D          Em         C
  Let loose, Let loose, Let loose, Let loose


Outro:  

  G
  So don't start rollin'

  D
  The flood is callin'

  Em                            C     D
  We're all gonna drown in here ton---ight x 4
Tap to rate this tab
 
# A B C D E F G H I J K L M N O P Q R S T U V W X Y Z