Song name
# A B C D E F G H I J K L M N O P Q R S T U V W X Y Z

The Expendables - Jenny tab

-----------------------------------------------------------------------------
                          Jenny - The Expendables 
-----------------------------------------------------------------------------
Tabbed by: j.casquejo
Email: geehanski@yahoo.com


Verse A: Rhythm guitar - use fingers (supposed to be piano)
    Em D
e|--------|
B|--5--3--|
G|--4--2--|
D|--2--4--|
A|--------|
E|--------|

Verse B: Rhythm guitar - reggae strums
      Em        D
e|--7-7-7-7--5-5-5-5--|
B|--8-8-8-8--7-7-7-7--|
G|--9-9-9-9--7-7-7-7--| (2x)
D|--------------------|
A|--------------------|
E|--------------------|

Pre-Chorus: Rhythm guitar - reggae strums
       Am       G       Am      G    D
e|--5-5-5-5--3-3-3-3--5-5-5-5--3-3--5-5--|
B|--5-5-5-5--3-3-3-3--5-5-5-5--3-3--7-7--|
G|--5-5-5-5--4-4-4-4--5-5-5-5--4-4--7-7--|
D|---------------------------------------|
A|---------------------------------------|
E|---------------------------------------|

Chorus: Rhythm guitar - reggae strums
     G    D     Am
e|--3-3--5-5--5-5-5-5--|
B|--3-3--7-7--5-5-5-5--|
G|--4-4--7-7- 5-5-5-5--| (2x)
D|---------------------|
A|---------------------|
E|---------------------|

Verse A
Verse B
Pre-Chorus
Chorus (2x)

Bridge: Rhythm guitar - reggae strums
     C   Bm     Em
e|--3-3--2-2--7-7-7-7--|
B|--5-5--3-3--8-8-8-8--|
G|--5-5--4-4--9-9-9-9--| (8x)
D|--5-5--4-4--9-9-9-9--|
A|---------------------|
E|---------------------|

Solo: Lead guitar
        Repeat 2x
e|------------------------|-------------------------------|
B|------------------------|-------------------------------|
G|-----11h12p11----11-12~-|-----11h12p11----11-12~-14-----|
D|--14----------14--------|--14----------14-----------14--|
A|------------------------|-------------------------------|
E|------------------------|-------------------------------|

        Repeat 2x
e|------------------------|-------------------------------|
B|------------------------|------------------------15-----|
G|-----11h12p11----11-12~-|-----11h12p11----11-12~---14---|
D|--14----------14--------|--14----------14---------------|
A|------------------------|-------------------------------|
E|------------------------|-------------------------------|

        Repeat 2x
e|------------------------|-------------------------------|
B|-----12h13p12----12-13--|-----12h13p12----12-13~-15-----|
G|--14----------14--------|--14----------14-----------12--|
D|------------------------|-------------------------------|
A|------------------------|-------------------------------|
E|------------------------|-------------------------------|

        Repeat 2x
e|------------------------|------------------------------------------------|
B|-----12h13p12----12-13--|-----12h13p12----12-13~-15----------------------|
G|--14----------14--------|--14----------14-----------12--14b16r14~-14b16~-|
D|------------------------|------------------------------------------------|
A|------------------------|------------------------------------------------|
E|------------------------|------------------------------------------------|

Verse A
Verse B
Chorus


************************************

| h   hammer-on
| p   pull-off
| ~   vibrato
| b   Bend
| br  Bend release

************************************
Tap to rate this tab
 
# A B C D E F G H I J K L M N O P Q R S T U V W X Y Z