Song name
# A B C D E F G H I J K L M N O P Q R S T U V W X Y Z

The Expendables - Head In My Hands tab

-----------------------------------------------------------------------------
                     Head In My Hands - The Expendables
-----------------------------------------------------------------------------
Tabbed by: j.casquejo
Email: geehanski@yahoo.com


Intro: Rhythm guitar
    v v  v v  v ^
e|--3-3--2-2--x-5--|
B|--3-3--2-2--x-5--|
G|--4-4--3-3--x-6--|
D|-----------------|
A|-----------------|
E|-----------------|

Verse: Rhythm guitar
e|--7-7--5-5--5-5--3-3--|
B|--8-8--5-5--7-7--3-3--|
G|--9-9--6-6--7-7--4-4--|
D|----------------------|
A|----------------------|
E|----------------------|

Chorus: Rhythm guitar
e|--3-3--5-5-------7-7-7-7--|
B|--5-5--7-7-(3x)--8-8-8-8--|
G|--5-5--7-7-------9-9-9-9--|
D|--------------------------|
A|--------------------------|
E|--------------------------|

Solo: Lead guitar
e|--10/12~--------------------10----------------12/14~/15--15(5x)14-------------|
B|---------10\8~-----8-10b12~----pb12r10p8-10~----------------------15-15/17-15-|
G|----------------/9------------------------------------------------------------|
D|------------------------------------------------------------------------------|
A|------------------------------------------------------------------------------|
E|------------------------------------------------------------------------------|

e|--10/12~------9b10~-------------------------------10/12~-----------------------------|
B|---------10\8-----------8-10-10b12r10-10h12-10~----------10\8~---8-10b12r10-10h12-10~|
G|--------------------7h9----------------------------------------9---------------------|
D|-------------------------------------------------------------------------------------|
A|-------------------------------------------------------------------------------------|
E|-------------------------------------------------------------------------------------|

Outro: Rhythm guitar (listen for strumming)
e|--------------|
B|--4--7--5--3--|
G|--4--7--6--4--|
D|--4--7--7--5--|
A|--2--5--7--5--|
E|--------5--3--|


************************************

| /   slide up
| \   slide down
| h   hammer-on
| p   pull-off
| ~   vibrato
| x   Mute note
| b   Bend
| pb  Pre-bend
| br  Bend release
| v   Down-stroke
| ^   Up-stroke 
************************************
Tap to rate this tab
 
# A B C D E F G H I J K L M N O P Q R S T U V W X Y Z