The Expendables - Minimum Wage tab

-----------------------------------------------------------------------------
			     Minumum Wage - The Expendables
-----------------------------------------------------------------------------





Tabbed by: wuteverbroskyy
Email:jordank@k2networks.com

Tuning:EADGBe


 
      C                                   G
e|-----------------------------0-----------------------------0--------------|            
B|------------------1-----------------------------3-------------------------|            
G|-------------0-------0------------------------------0---------------------|            
D|--------2--------------2-------------------------------0------------------|            
A|----3---------------------------------------2-----------------------------|            
E|----------------------------------------3------3--------------------------|            

     
   Am                         F                        C
e|----------------0----------------------1---------1------------------------|
B|---0----0h1---------------------1----------1------------------------1-----|
G|----------------------------------2-----------2------------------0--------|
D|------2-------2-------------3---------------------------2----0h2----------|
A|-0---------------------------------------------------3----3---------------|
E|--------------------------------------------------------------------------|



             G                           Am
e|------------------------------3-------------------------------0-----------|              
B|---------1---------3--------------------------0------0h1------------------|               
G|-------0------0-------0---------------------------------------------------|               
D|---0h2--------------------0----------------------2--------2---------------|               
A|----------------2----------------------0----------------------------------|               
E|-----------3--------------------------------------------------------------|                 
              

       F
e|-------------------1-----------------1------------------------------------|
B|-----------1------------1-------------------------------------------------|
G|--------2-----2-------------2---------------------------------------------|
D|-----3--------------------------------------------------------------------|
A|--------------------------------------------------------------------------|
E|--------------------------------------------------------------------------|



love it or leave it
questions/comments email me

************************************

| /   slide up
| \   slide down
| h   hammer-on
| p   pull-off
| ~   vibrato
| +   harmonic
| x   Mute note
| b   Bend
| pb  Pre-bend
| br  Bend release
| pbr Pre-bend release
| brb Bend release bend

************************************
Tap to rate this tab
 
# A B C D E F G H I J K L M N O P Q R S T U V W X Y Z