The Expendables - Wells Acoustic tab

-----------------------------------------------------------------------------
Wells (Acoustic) Ė The Expendables
-----------------------------------------------------------------------------
Tabbed by: Daniel
Email: daniel_phantom94@hotmail.com

Tuning: Standard

At the part with the Xs, tap the 
body of the guitar with your right hand.
And, for the chorus, youíll have to listen 
to the song to get the strumming pattern down.

Intro x4
E|----------------------X--X------------------------------------------------|
B|----------------------X--X------------------------------------------------|
G|----4----------7--9---X--X------------------------------------------------|
D|----------------------X--X------------------------------------------------|
A|----------------------X--X------------------------------------------------|
E|-3-----3--5/7--7--8---X--X------------------------------------------------|

Verse 1 x8
E|--------------------------------------------------------------------------|
B|--------------------------------------------------------------------------|
G|----4----------7--9-------------------------------------------------------|
D|--------------------------------------------------------------------------|
A|--------------------------------------------------------------------------|
E|-3-----3--5/7--7--8-------------------------------------------------------|

Chorus
E|--------------------------------------------------------------------------|
B|-8--7--5--3----8--7--5--5--7----8--7--5--3--8--7--5--3--3--2--3-----------|
G|-9--7--5--4----9--7--5--5--7----9--7--5--4--9--7--5--4--3--2--2-----------|
D|-9--7--5--5----9--7--5--5--7----9--7--5--5--9--7--5--5--3--2--0-----------|
A|-7--5--3--5----7--5--3--3--5----7--5--3--5--7--5--3--5--1--0--0-----------|
E|----------3------------------------------3-----------3--------------------|

Break x4 (horn solo)
E|--------------------------------------------------------------------------|
B|--------------------------------------------------------------------------|
G|----4----------7--9-------------------------------------------------------|
D|--------------------------------------------------------------------------|
A|--------------------------------------------------------------------------|
E|-3-----3--5/7--7--8-------------------------------------------------------|

Verse 2 x8
E|--------------------------------------------------------------------------|
B|--------------------------------------------------------------------------|
G|----4----------7--9-------------------------------------------------------|
D|--------------------------------------------------------------------------|
A|--------------------------------------------------------------------------|
E|-3-----3--5/7--7--8-------------------------------------------------------|

Chorus
E|--------------------------------------------------------------------------|
B|-8--7--5--3----8--7--5--5--7----8--7--5--3--8--7--5--3--3--2--3-----------|
G|-9--7--5--4----9--7--5--5--7----9--7--5--4--9--7--5--4--3--2--2-----------|
D|-9--7--5--5----9--7--5--5--7----9--7--5--5--9--7--5--5--3--2--0-----------|
A|-7--5--3--5----7--5--3--3--5----7--5--3--5--7--5--3--5--1--0--0-----------|
E|----------3------------------------------3-----------3--------------------|

Break x4 (horn solo)
E|--------------------------------------------------------------------------|
B|--------------------------------------------------------------------------|
G|----4----------7--9-------------------------------------------------------|
D|--------------------------------------------------------------------------|
A|--------------------------------------------------------------------------|
E|-3-----3--5/7--7--8-------------------------------------------------------|

Verse 3 x4
E|--------------------------------------------------------------------------|
B|--------------------------------------------------------------------------|
G|----4----------7--9-------------------------------------------------------|
D|--------------------------------------------------------------------------|
A|--------------------------------------------------------------------------|
E|-3-----3--5/7--7--8-------------------------------------------------------|

Break x4 (horn solo)
E|--------------------------------------------------------------------------|
B|--------------------------------------------------------------------------|
G|----4----------7--9-------------------------------------------------------|
D|--------------------------------------------------------------------------|
A|--------------------------------------------------------------------------|
E|-3-----3--5/7--7--8-------------------------------------------------------|

Chorus
E|--------------------------------------------------------------------------|
B|-8--7--5--3----8--7--5--5--7----8--7--5--3--8--7--5--3--3--2--3-----------|
G|-9--7--5--4----9--7--5--5--7----9--7--5--4--9--7--5--4--3--2--2-----------|
D|-9--7--5--5----9--7--5--5--7----9--7--5--5--9--7--5--5--3--2--0-----------|
A|-7--5--3--5----7--5--3--3--5----7--5--3--5--7--5--3--5--1--0--0-----------|
E|----------3------------------------------3-----------3--------------------|

Outro x4
(on the 4th time, play notes in parentheses) 
E|--------------------------------------------------------------------------|
B|--------------------------(8)ó(10)ó(12)-----------------------------------|
G|----4----------7--9--(11)-------------------------------------------------|
D|--------------------------------------------------------------------------|
A|--------------------------------------------------------------------------|
E|-3-----3--5/7--7--8-------------------------------------------------------|

Verse 1
Can I draw some water, babe?
From your well?
Can I draw some water, babe?
ĎCause mine has failed

The bucket wonít come up
No matter how hard I crank
The bucket wonít come up
I think it sank

Chorus
I walk the road between your house and mine
I hope the bridge hasnít collapsed
I hope the man at the gate will let me through
Unless, heís holding on to you

Holding on to you

Verse 2
How has your garden grown?
Is there fruit on your trees?
Do you need a laborer
To pull up those weeds?

Oh, I am so lonely, babe
In my house on the hill
Oh, I am so lonely, baby
The silence kills

Chorus
I walk the road between your house and mine
I hope the bridge hasnít collapsed
I hope the man at the gate will let me through
Unless, heís holding on to you

Holding on to you

Verse 3
I wish that I could sit
In your garden again
And watch the stars at night
From your bed

Chorus
I walk the road between your house and mine
I hope the bridge hasnít collapsed
I hope the man at the gate will let me through
Unless, heís holding on to you

Holding on to you
Tap to rate this tab
 
# A B C D E F G H I J K L M N O P Q R S T U V W X Y Z