Song name
# A B C D E F G H I J K L M N O P Q R S T U V W X Y Z

The Expendables - One Drop tab

INTRO/CHORUS (clean)
Guitar 1 (strum first chord strongly, then reggae style)         
E|-3-------------|
B|-3-5-5-5-5-7-7-|
G|-4-5-5-5-5-7-7-|
D|-5-5-5-5-5-7-7-|
A|-5-3-3-3-3-5-5-|
E|-3-------------|
Guitar 2 (pause between each run aka each "^")
E|-----3---------5---------3---------5---------3---------5---------3---------5-----5---|
B|---3---3-----5---5-----5---5-----7---7-----3---3-----5---5-----5---5-----7---7-----7-|
G|-4-------4-5-------5-5-------5-7-------7-4-------4-5-------5-5-------5-7-------7-----|
D|-------------------------------------------------------------------------------------|
A|-------------------------------------------------------------------------------------|
E|-------------------------------------------------------------------------------------|
            ^         ^         ^         ^         ^         ^            
SOLO-RIFF (distorted, played post-chorus with clean chorus Guitar 1)
E|-------------------------------------------------------------------------------------|
B|----------12-----------------------15-----------------------15-----------------------|
G|----11-------14-12---14-12---14b16----14-12---14-12---14b16----b16r14p12-14-12----12-|
D|-12----12----------------------------------------------------------------------14----|
A|-------------------------------------------------------------------------------------|
E|-------------------------------------------------------------------------------------|

VERSE (clean)
Guitar 1
E|-3-3--3-3-3--5-5--5-5-5--3-3--3-3-3--5-5--5-5-5-|
B|-3-3--3-3-3--5-5--5-5-5--5-5--5-5-5--7-7--7-7-7-|
G|-4-4--4-4-4--5-5--5-5-5--5-5--5-5-5--7-7--7-7-7-|
D|-5-5--5-5-5--5-5--5-5-5--5-5--5-5-5--7-7--7-7-7-|
A|-5-5--5-5-5--3-3--3-3-3--3-3--3-3-3--5-5--5-5-5-|
E|-3-3--3-3-3-------------------------------------|
Guitar 2
E|-----3-------3-----5-------5-----3-------5-----5-------7-|
B|---3---3---3-----5---5---5-----5---5---3-----7---7---5---|
G|-4-------4-----5-------5-----5-------5-----7-------7-----|
D|---------------------------------------------------------|
A|---------------------------------------------------------|
E|---------------------------------------------------------|

SOLO-RIFF 2 (distorted, played with clean chorus Guitar 1)
E|--------------------------------------------------------------------------|
B|----------12-----------------------15-------------------------------------|
G|----11-------14-12---14-12---14b16----14-12---14-12\--7h9-7---7-----------|
D|-12----12---------------------------------------------------9---9p7\5-7-5-|
A|--------------------------------------------------------------------------|
E|--------------------------------------------------------------------------|

INTERLUDE 
Guitar 1 (clean, on last time through don't play the last chord)
E|-7-7-7-7-7-7-7-----------------------------3-3-3-3-3-3-3-|
B|-8-8-8-8-8-8-8-7-7-7-7-7-7-7-5-5-5-5-5-5-5-3-3-3-3-3-3-3-|
G|-9-9-9-9-9-9-9-7-7-7-7-7-7-7-5-5-5-5-5-5-5-4-4-4-4-4-4-4-|
D|-9-9-9-9-9-9-9-7-7-7-7-7-7-7-5-5-5-5-5-5-5-5-5-5-5-5-5-5-|
A|-7-7-7-7-7-7-7-5-5-5-5-5-5-5-3-3-3-3-3-3-3-5-5-5-5-5-5-5-|
E|-------------------------------------------3-3-3-3-3-3-3-|
Guitar 2 (distorted, go right into this from solo-riff 2, first part played three times)
E|---------------|-----------------------------------------------|
B|---------------|----------------------------15-----------------|
G|-9/11\7--5/7\4-|-9/11\7/11\9----14b16r14p12-14b16-r14-12-14-12-|
D|---------------|-----------------------------------------------|
A|---------------|-----------------------------------------------|
E|---------------|-----------------------------------------------|

END SOLO-RIFF (distorted, played with clean chorus Guitar 1)
E|--------------------------------------------|last bit (from the bend) is played a 
B|----------12-----------------------15-------|couple more times; song ends on a slide-
G|----11-------14-12---14-12---14b16----14-12-|down from the last note
D|-12----12-----------------------------------|
A|--------------------------------------------|
E|--------------------------------------------|

ORDER: Intro then Solo Riff, Verse, Chorus then Solo Riff, Verse, Chorus then Solo 
Riff 2, Interlude, Chorus then End Solo-Riff
Tap to rate this tab
 
# A B C D E F G H I J K L M N O P Q R S T U V W X Y Z