The Expendables - Wells tab

I don't like the other tabs for this song, this is all I know so far. I will update when 
I figure the rest out. I know for sure this intro is right, just listen closely and 
you'll see.

Email: tdhogue@hotmail.com

Intro:
e--------------------------x-x----------------}
B--------------------------x-x----------------}
G------4-------7---(9---)--x-x----------------}
D--------------------------x-x----------------}
A--------------------------x-x----------------}
E---3---3-3/7------(8---)--x-x----------------}

Can I draw some water babe?...
e---------------------------------------------}
B---------------------------------------------}
G------4-------7---(9---)---------------------}
D---------------------------------------------}
A---------------------------------------------}
E---3---3-3/7------(8---)---------------------}


Chorus: I walk the road..
e---------------------------------------------}
B---8---7---5---3----8---7---(5)----3--5------}
G---0---0---0---0----0---0---(0)----0--0------}
D---------------------------------------------}
A---7---5---3---2----7---5---(3)----2--5------}
E---------------------------------------------}


Legend:
x- Tap on pickgaurd
/- Slide
()- Let note ring
Tap to rate this tab
 
# A B C D E F G H I J K L M N O P Q R S T U V W X Y Z