Song name
# A B C D E F G H I J K L M N O P Q R S T U V W X Y Z

The Expendables - Bridges Burned tab

This is the sickest expendable song
intro
e|5-5-5-5-3-3-3-3-5-5-5-5-5--------565-|
b|6-6-6-6-5-5-5-5-5-5-5-5-6---5-6-8----|
g|---7-------6-------6-----6-7---------|
d|-------------------------------------|
a|-------------------------------------|
e|-------------------------------------|
Chorus
e|5-5-3-3-5-5-5-5-|
b|6-6-3-3-5-5-6-6-|
g|7-7-3-3-6-6-7-7-|
d|----------------|
a|----------------|
e|----------------|
Bridge
e|-------------|X2
b|6-5-6-5h6p5--|
g|---7-6-----7-|
d|-------------|
a|-------------|
e|-------------|
chorus
e|5-5-3-3-5-5-5-5-|
b|6-6-3-3-5-5-6-6-|
g|7-7-3-3-6-6-7-7-|
d|----------------|
a|----------------|
e|----------------|
Solo
e|---------------------------------|
b|6-5-6--5h6p5-6-6---6-5-----5h6p5-|
g|---7-6------7---5-7---4-5-7------|
d|---------------------------------|
a|---------------------------------|
e|---------------------------------|
Tap to rate this tab
 
# A B C D E F G H I J K L M N O P Q R S T U V W X Y Z