Guitaretab - guitar tabs
Song name
# A B C D E F G H I J K L M N O P Q R S T U V W X Y Z

The Expendables - Strive tab

The Expendables
Song: Strive
Album: No Time to Worry

Tuning: Standard

eI-------------------I
BI-----------10-8-7-I   x11    
GI-------7-----------I
DI---7/9-------------I
AI-------------------I
EI-------------------I  


eI----------------------------I
BI-----------10-8-7-8-7---7~--I
GI-------7--------------9-----I
DI---7/9----------------------I
AI----------------------------I
EI----------------------------I
[ Tab from: http://www.guitaretab.com/t/the-expendables/88115.html ]
e|----------------------------------|
B|----------------------------------|
G|-7--66h7p6-----7--7--9-7---------|
D|-----------9---9--9---------------|
A|----------------------------------|
E|----------------------------------|




Verse- These Chords are played pretty much the whole time, listen for the rhythm and what not.

e|-5-----5-----3-----|
B|-7-----5-----3-----|
G|-7-----6-----4-----|
D|-7-----7-----5-----|
A|-5-----7-----5-----|
E|-5-----5-----3-----|
Related for Strive tab