Song name
# A B C D E F G H I J K L M N O P Q R S T U V W X Y Z

The Expendables - Down Down Down tab

Song:Down Down Down
Album:The Expendables

h=Hammer on
^=Bend
p=Pull off
/=Slide up
\=Slide down
(x)=Sweep

Intro/Chorus:

E|-10-10-8-10|
B|-11-10-8-10|
G|-12-10-8-10|
D|-12-12-8-10|
A|-10-12-6--8|
E|----10-----|

Lead Guitar Intro:

E|---------------|------------------------------|
B|---3-4---3--3--|-666-3-4---3---3-4---3--3--3--|
G|-5-----5--3--3-|---------5--3------5--3--3--3-|
D|-----------5--5|-------------5---------5--5--5|
A|---------------|------------------------------|
E|---------------|------------------------------|

Verse:

Strum on the offbeat

E|-10-10-5-5-8-8-10-10|
B|-11-11-6-6-8-8-10-10|
G|-12-12-7-7-8-8-10-10|
D|-12-12-7-7-8-8-10-10|
A|-10-10-5-5-6-6--8--8|
E|--------------------|

Chorus (Lead Guitar)

E|---10---------10---------------8h10----10---------10-13---------------8h10-|
B|888-----------------11--------------888--------------------11-------------8|
G|------10-10-10---888---10-10-10-----------10-10-10------888---10-10-10-----|
D|---------------------------------------------------------------------------|
A|---------------------------------------------------------------------------|
E|---------------------------------------------------------------------------|

Solo

E|-----------------------------------------------------------(11)-10----------|
B|-^13-^13-13-11-13-11-11h13p11-10-11-10----10-13-----^13-13-(11)----13-11-10-|
G|---------------------------------------12-------10---------(12)-------------|
D|----------------------------------------------------------------------------|
A|----------------------------------------------------------------------------|
E|----------------------------------------------------------------------------|

E-----------------------------------------------------------------------------|
B-11-10--------------10h11p10----10-------10h11p10----10-11----10h11p10----10-|
G-------12-11-12--12----------12----12-12----------12-------12----------12----|
D-----------------------------------------------------------------------------|
A-----------------------------------------------------------------------------|
E-----------------------------------------------------------------------------|

E------------------------------|----------15-18|
B-11-13-10h11p10----10-11-13-11|-15-17-18------|
G----------------12------------|---------------|
D------------------------------|---------------|
A------------------------------|---------------|
E------------------------------|---------------|

Lead Guitar Outro

E|----------------------------------------------------------------------|
B|----------10-11-10----------10-11-10----------10h11p10----10----------|
G|----10-12-------------10-12-------------10-12----------12---^12-10----|
D|-12----------------12----------------12----------------------------12-|
A|----------------------------------------------------------------------|
E|----------------------------------------------------------------------|

E----------------------------------------------------------------|
B----------------------------------------------------------------|
G----------10-11-10----------10-11-10----------10h11p10-11-13-15-|
D----10-12-------------10-12-------------10-12-------------------|
A-12----------------12----------------12-------------------------|
E----------------------------------------------------------------|

E-------------------------------------------------------------------------|
B-------------------------------------------------------------------------|
G----------10-11-10----------10-11-10----------10h11p10----10-------------|
D----10-12-------------10-12-------------10-12----------12---^12-12p10h12-|
A-12----------------12----------------12----------------------------------|
E-------------------------------------------------------------------------|

E---------------------------------------------------------------------|
B---------------------------------------------------------------------|
G----------10-11-10----------10-11-10----------10h11p10----10---------|
D----10-12-------------10-12-------------10-12----------12----12-10---|
A-12----------------12----------------12----------------------------12|
E---------------------------------------------------------------------|
Tap to rate this tab
 
# A B C D E F G H I J K L M N O P Q R S T U V W X Y Z