Song name
# A B C D E F G H I J K L M N O P Q R S T U V W X Y Z

The Exploding Hearts - Throwaway Style drum

this is my first tab, most people don't know these guys because they died last year but it's an awesome
song

Intro
   1        2     3    4   x7
 F ---------0----------0

 
 F ---------0---------- 
 S -------------------00

 
 C 0--------------------
 H --0--0-—0--0--0--0--0   x7
 S --0-----0-----00----0
 B 0----0-----00----00--

H 0-0--0--0--0--0--0---
S --0-----0-----00--0000
B 0----0-----00----0---


R 0-0--0--0--0--0--0--0-
HF----------------------  X1
S --0-----0-----0-----00
B 0----0-----0-----00---

R 0-0--0--0-------------
HF-------------0--0--0--
F ---------------------0
S --0-----0--F----------
B 0----0-----0----------

 C 0--------------------
 H --0--0-—0--0--0--0--0   x7
 S --0-----0-----00----0
 B 0----0-----00----00--

H 0-0--0--0--0--0--0---
S --0-----0-----00--0000
B 0----0-----00----0---

R 0-0--0--0--0--0--0--0-
HF----------------------  X2
S --0-----0-----0-----00
B 0----0-----0-----00---

R 0-0--0--0------------
C ----------0--0--0--0-
S --0-----0------------
B 0----0----0--0--0--0-

R -----------0--0-
C --------0-------
F ------0---------
S 000000-----0---0
B --------0-0-00--

R 0-0--0--0--0--0--0--0-
HF----------------------  X3 (on last time, last snare hit, make it a flam)
S --0-----0-----00----0-
B 0----0-----00----00---

(guitar solo)
 C 0--------------------
 H --0--0-—0--0--0--0--0   x7 (last time, last high hat is open)
 S --0-----0-----00----0
 B 0----0-----00----00--

 T --0----0----00----0--  X4 (last time, flam the last snare)
 B 0----0----00----00---

 C 0--------------------
 H --0--0-—0--0--0--0--0   X2
 S --0-----0-----00----0
 B 0----0-----00----00--

 H 0-0--0--0--0--0--0---
S ---0-----0-----00--0000
B  0----0-----00----0---

R 0-0--0--0--0--0--0--0-
HF----------------------  X2
S --0-----0-----0-----00
B 0----0-----0-----00---

R 0-0--0--0------------
C ----------0--0--0--0-
S --0-----0------------
B 0----0----0--0--0--0-

R -----------0--0-
C --------0-------
F ------0---------
S 000000-----0---0
B --------0-0-00--

R 0-0--0--0--0--0--0--0-
HF----------------------  X5
S --0-----0-----0-----00
B 0----0-----0-----00---

S --0----0-----00---0---
B 0----0----00----00----  X7
	
Tap to rate this tab
# A B C D E F G H I J K L M N O P Q R S T U V W X Y Z