Song name
# A B C D E F G H I J K L M N O P Q R S T U V W X Y Z

The Explosion - Here I Am tab

Drop D Tuning(D-A-D-G-B-E)



Intro(Note:The intro for rhythm guitar is the same as Chorus3)

|---------------10-----------------------------------------------------|
|-1010-101088-88--8--88--88--81010-101088-8877--77--77--755-5555-5/7-8-|
|----------------------------------------------------------------------|
|----------------------------------------------------------------------|
|----------------------------------------------------------------------|
|----------------------------------------------------------------------|

|------------------------------------|
|-3--33--33--5/8-55-5588-8833-33--33-|
|------------------------------------|
|------------------------------------|
|------------------------------------|
|------------------------------------|


Chorus1(2x)

|-----------------------------------------|
|-----------------------------------------|
|-----------------------------------------|
|-0---7--55-0---7--55-0---7--55-55-5555-0-|
|-0---7--55-0---7--55-0---7--55-55-5555-0-|
|-0---7--55-0---7--55-0---7--55-55-5555-0-|




Chorus2

|----------------------|
|----------------------|
|-44-4444-44-----------|
|-44-4444-4422-2222-22-|
|-22-2222-2222-2222-22-|
|-----------22-2222-22-|


This segment is played by lead guitar after Chorus2

|-3-2-0-2-5-2-3-2--|
|--3-3-3-3-3-3-3-3-|
|------------------|
|------------------|
|------------------|
|------------------|




Chorus3(2x)

|---------------------------------------------|
|---------------------------------------------|
|---------------------------------------------|
|-00-0077-7755--55--55--577-7755-5500--00--00-|
|-00-0077-7755--55--55--577-7755-5500--00--00-|
|-00-0077-7755--55--55--577-7755-5500--00--00-|


The Outro is the same as the Intro.




GOOD LUCK!!!!!
Tap to rate this tab
 
# A B C D E F G H I J K L M N O P Q R S T U V W X Y Z