Song name
# A B C D E F G H I J K L M N O P Q R S T U V W X Y Z

The Explosion - Heavyweight tab

Help us improve GuitareTab! Take a short survey!
-------------------------------------------------------------------------------
			     Heavyweight - The Explosion
-------------------------------------------------------------------------------
Tabbed by: bloodred16
Email: happytreefriends_firstblood@hotmail.com

Tuning: Standard (EADGBe)

This is all you need for one guitar, i've included second guitar where it's 
really obvious that there are two guitars!  Enjoy...

Intro
Rhy. Fig. 1 (x4)   Rhy. Fig. 2 (x4)
e|---------------------------------------------------------------------------|
B|---------------------------------------------------------------------------|
G|---------------------------------------------------------------------------|
D|-----------------4---4----4------------------------------------------------|
A|444-444-44-------2---2-22-22-44244242--------------------------------------|
E|222-222-22-------------00--0-22022020--------------------------------------|

Verse - Rhy. Fig. 2 (x7)
Rhy. Fill. 1
e|---------------------------------------------------------------------------|
B|---------------------------------------------------------------------------|
G|---------------------------------------------------------------------------|
D|4---4----4-----------------------------------------------------------------|
A|2---2-22-22-44444444-------------------------------------------------------|
E|------00--0-22222222-------------------------------------------------------|

Chorus
Rhy. Fig. 3 (x3)
e|---------------------------------------------------------------------------|
B|---------------------------------------------------------------------------|
G|4--4-----------------------------------------------------------------------|
D|4--4--2--2--4-2-4-242------------------------------------------------------|
A|2--2--2--2--4-2-4-242------------------------------------------------------|
E|------0--0--2-0-2-020------------------------------------------------------|

Rhy. Fill. 2
e|---------------------------------------------------------------------------|
B|---------------------------------------------------------------------------|
G|--------444-444-44---------------------------------------------------------|
D|2-2-2-2-444-444-44---------------------------------------------------------|
A|2-2-2-2-222-222-22---------------------------------------------------------|
E|0-0-0-0--------------------------------------------------------------------|

Interlude - Rhy. Fig. 2 (x2)
Verse 2 - Bass, then play
Riff A (x3 1/2)                      then    *    Fill 1   *
e|---------------------------------------------------------------------------|
B|--7---7---7---7---7---7---7---7--------------7---7---7---7-----------------|
G|---------------------------------------------------------------------------|
D|9---9---9---9---8---8---8---8----------------------------------------------|
A|-------------------------------------------4---4---4---4-------------------|
E|---------------------------------------------------------------------------|
    +   +   +   +   +   +   +   +            +-------------|

Other guitar plays this at end of each repeat of Riff A  
e|---------------------------------------------------------------------------|
B|---------------------------------------------------------------------------|
G|---------------------------------------------------------------------------|
D|242------------------------------------------------------------------------|
A|242------------------------------------------------------------------------|
E|020------------------------------------------------------------------------|

on Fill 1 other guitar plays
e|---------------------------------------------------------------------------|
B|---------------------------------------------------------------------------|
G|---------------------------------------------------------------------------|
D|44444444-------------------------------------------------------------------|
A|44444444-------------------------------------------------------------------|
E|22222222-------------------------------------------------------------------|

Chorus - Rhy. Fig. 3 (x3), Rhy. Fill. 2

Solo
e|---------------------------------------------------------------------------|
B|-----10-9------------------------------------------------------------------|
G|----9----9-11-----9----9---------------------------------------------------|
D|9h11----------9h11-9h11-9h11-----------------------------------------------|
A|-----------------------------x4--------------------------------------------|
E|---------------------------------------------------------------------------|

other guitar plays this in the solo
Rhy. Fig. 4
e|---------------------------------------------------------------------------|
B|---------------------------------------------------------------------------|
G|4444-----------------------------------------------------------------------|
D|44442222-44244242----------------------------------------------------------|
A|22222222-44244242----------------------------------------------------------|
E|----0000-22022020----------------------------------------------------------|

Verse 3 - Rhy. Fig. 4 (x7)

then play Rhy. Fill. 2
e|---------------------------------------------------------------------------|
B|---------------------------------------------------------------------------|
G|---------------------------------------------------------------------------|
D|44444444-------------------------------------------------------------------|
A|44444444-------------------------------------------------------------------|
E|22222222-------------------------------------------------------------------|

Chorus - Rhy. Fig. 3 (x3), Rhy. Fill. 2 {play chorus twice}

Ending
e|---------------------------------------------------------------------------|
B|---------------------------------------------------------------------------|
G|---------------------------------------------------------------------------|
D|------------9--------------------------------------------------------------|
A|44244242----7--------------------------------------------------------------|
E|22022020-x4----------------------------------------------------------------|
              |---------------------------- fade out

| h  hammer-on
| +  harmonic
===============================================================================
Related for Heavyweight tab