Song name
# A B C D E F G H I J K L M N O P Q R S T U V W X Y Z

The Explosion - Hollywood Sign tab

 ---------------------------------------------------------------------------
                          The Explosion - Hollywood Sign
 ---------------------------------------------------------------------------
 Album: Black Tape

 ~ = ring out
 / = slide up
 \ = slide down

Intro      Intro 2
e|---0~--|---------------------------------------------------------------|
B|---0~--|---------------------------------------------------------------|
G|---0~--|--5/7777777777777-5/7777777777777------------------------------|
D|---0~--|--5/7777777777777-5/7777777777777-5555555555555555555555555555-|
A|---0~--|--3/5555555555555-3/5555555555555-5555555555555555555555555555-|
E|---0~--|----------------------------------3333333333333333333333333333-|x2

Verse
e|--------------------------------------------------------------|
B|--------------------------------------------------------------|
G|-5/7777777777777-5/7777777777777------------------------------|
D|-5/7777777777777-5/7777777777777-5555555555555555555555555555-|
A|-3/5555555555555-3/5555555555555-5555555555555555555555555555-|
E|---------------------------------3333333333333333333333333333-|x2

Chorus
e|---------------------------------------------|
B|---------------------------------------------|
G|------------7777777777------------7777777777-|
D|-8888888888-7777777777-8888888888-7777777777-|
A|-8888888888-5555555555-8888888888-5555555555-|
E|-6666666666------------6666666666------------|x1

e|-------------------------|
B|-------------------------|
G|-------------------------|
D|-8888888888-555555555555-|
A|-8888888888-555555555555-|
E|-6666666666-333333333333-|x1

Intro 2 
Verse 
Chorus x1

Bridge
e|----------------------------|
B|----------------------------|
G|-777-999-555555-------------|
D|-777-999-555555-55555555555-|
A|-555-777-333333-55555555555-|
E|----------------33333333333-|x4

          D|-5-| 
          A|-5-|
while the E|-3-| is being played there is another guitar playing this

e|-----------------------------------|
B|-10-10-8-8-7-7-5-5-8-8-7-7-5-5-3-3-|
G|--0--0-0-0-0-0-0-0-0-0-0-0-0-0-0-0-|
D|-----------------------------------|
A|-----------------------------------|
E|-----------------------------------|but this is only played the first 3 times

Solo (Bridge 2)
e|-------------------------------------------------------------------------|
B|-------------------------------------------------------------------------|
G|-121212121212121212121212161616161616161616161616121212121212121212121212|
D|-xxxxxxxxxxxxxxxxxxxxxxxxxxxxxxxxxxxxxxxxxxxxxxxxxxxxxxxxxxxxxxxxxxxxxxxx|
A|-101010101010101010101010141414141414141414141414101010101010101010101010|
E|-------------------------------------------------------------------------|

Solo (continued)
e|--------------------------|
B|--------------------------|
G|-101010101010101010101010-|
D|-xxxxxxxxxxxxxxxxxxxxxxxx-|
A|--8-8-8-8-8-8-8-8-8-8-8-8-|
E|--------------------------|

Alt. Verse after solo
e|----------------------------------------------------|
B|----------------------------------------------------|
G|-5/77~--------------------5/77~---------------------|
D|-5/77~--------555~--------5/77~--------555~----555~-|
A|-3/55~--------555~--------3/55~--------555~----555~-|
E|--------------333~---------------------333~----333~-|

Chorus x2

End On
e|-------------|
B|-------------|
G|-------------|
D|-555555555~\-|
A|-555555555~\-|
E|-333333333~\-|
Tap to rate this tab
 
# A B C D E F G H I J K L M N O P Q R S T U V W X Y Z