Song name
# A B C D E F G H I J K L M N O P Q R S T U V W X Y Z

The Explosion - Explosion tab

-------------------------------------------------------------------------------
			   E.X.P.L.O.S.I.O.N - The Explosion
-------------------------------------------------------------------------------
Tabbed by: Bloodred16
Email: happytreefriends_firstblood@hotmail.com

Great song, they should start with this in every single live set they do!
Have fun playing this one....i do.

Tuning: Standard (EADGBe)

Rhy. Fig. 1 (x4) (Gtr.1)     after fourth time the last note is
e|---------------------------------------------------------------------------|
B|----------7----------------------------------------------------------------|
G|----------4----4-----------------------------------------------------------|
D|4-444444-------2---23-------------------------------------------4----------|
A|2-222222-----------01-------------------------------------------2----------|
E|---------------------------------------------------------------------------|

Riff A - (x4) (Gtr.2) {played with Rhy. Fig. 1}
e|---------------------------------------------------------------------------|
B|7p5p4----------------------------------------------------------------------|
G|------4--------------------------------------------------------------------|
D|---------------------------------------------------------------------------|
A|---------------------------------------------------------------------------|
E|---------------------------------------------------------------------------|

Then:
  |--Gtr.2--|  |Gtr1|  |--Gtr.2--|
e|---------------------------------------------------------------------------|
B|---------------------------------------------------------------------------|
G|---------------------------------------------------------------------------|
D|--------------23-4---------------------------------------------------------|
A|--------------01-2---------------------------------------------------------|
E|77-77-77-77----------77-77-77-77-------------------------------------------|
  +---------|          +---------|

Rhy. Fig. 2 (x4)(Gtr.1 & 2)
e|---------------------------------------------------------------------------|
B|---------------------------------------------------------------------------|
G|---------------------------------------------------------------------------|
D|4-4-444-4444-2-3-----------------------------------------------------------|
A|2-2-222-2222-0-1-----------------------------------------------------------|
E|---------------------------------------------------------------------------|

Rhy. Fig. 1 (x4)(Gtr.1), Riff. A (x4)(Gtr.2)

Rhy. Fig. 3 (Gtr.1) (Gtr.2 plays the P.S.)
e|---------------------------------------------------------------------------|
B|---------------------------------------------------------------------------|
G|---------------------------------------------------------------------------|
D|7-7-7-7-77--------------4---2-3-4------------------------------------------|
A|5-5-5-5-55--5-5-5-5-55--2---0-1-2------------------------------------------|
E|------------3-3-3-3-33-------------P.S.------------------------------------|

Rhy. Fig. 2 (x4)(Gtr.1 & 2)

Gtr. 2 then goes into this solo Gtr. 1 plays Rhy. Fig. 1 (x4) under the solo
e|---------------------------------------------------------5-----------------|
B|6p5p0-6p5p0-6p5-0-000000-3p2p0-3p2p0-3p2-6-5-333-0--0000---7-5p3p0-3-333333|
G|---------------------------------------------------------------------------|
D|---------------------------------------------------------------------------|
A|---------------------------------------------------------------------------|
E|---------------------------------------------------------------------------|

e|---------------------------------------------------------------------------|
B|3h6-6-555-0-000000-3-0-----------------------------------------------------|
G|---------------------------------------------------------------------------|
D|---------------------------------------------------------------------------|
A|---------------------------------------------------------------------------|
E|---------------------------------------------------------------------------|

Rhy. Fig. 2 (x4)(Gtr.1 & 2)

End on
e|---------------------------------------------------------------------------|
B|---------------------------------------------------------------------------|
G|---------------------------------------------------------------------------|
D|4--------------------------------------------------------------------------|
A|2--------------------------------------------------------------------------|
E|---------------------------------------------------------------------------|
  |---------------------

| h  hammer-on
| p  pull-off
| |---- hold note
| + harmonic
| x  mute note
| P.S. pick scratch
===============================================================================
Tap to rate this tab
# A B C D E F G H I J K L M N O P Q R S T U V W X Y Z